  0
SECTION
  2
HEADER
  9
$ACADVER
  1
AC1015
  9
$ACADMAINTVER
 70
     6
  9
$DWGCODEPAGE
  3
ANSI_1254
  9
$INSBASE
 10
0.0
 20
0.0
 30
0.0
  9
$EXTMIN
 10
0.0
 20
0.0
 30
0.0
  9
$EXTMAX
 10
279.4
 20
215.9
 30
0.0
  9
$LIMMIN
 10
0.0
 20
0.0
  9
$LIMMAX
 10
279.4
 20
215.9
  9
$ORTHOMODE
 70
     0
  9
$REGENMODE
 70
     1
  9
$FILLMODE
 70
     1
  9
$QTEXTMODE
 70
     0
  9
$MIRRTEXT
 70
     1
  9
$LTSCALE
 40
1.0
  9
$ATTMODE
 70
     1
  9
$TEXTSIZE
 40
3.5
  9
$TRACEWID
 40
1.0
  9
$TEXTSTYLE
  7
Standard
  9
$CLAYER
  8
0
  9
$CELTYPE
  6
ByLayer
  9
$CECOLOR
 62
   256
  9
$CELTSCALE
 40
1.0
  9
$DISPSILH
 70
     0
  9
$DIMSCALE
 40
1.0
  9
$DIMASZ
 40
3.5
  9
$DIMEXO
 40
1.0
  9
$DIMDLI
 40
3.75
  9
$DIMRND
 40
0.0
  9
$DIMDLE
 40
0.0
  9
$DIMEXE
 40
1.0
  9
$DIMTP
 40
0.0
  9
$DIMTM
 40
0.0
  9
$DIMTXT
 40
3.5
  9
$DIMCEN
 40
2.5
  9
$DIMTSZ
 40
0.0
  9
$DIMTOL
 70
     0
  9
$DIMLIM
 70
     0
  9
$DIMTIH
 70
     1
  9
$DIMTOH
 70
     1
  9
$DIMSE1
 70
     0
  9
$DIMSE2
 70
     0
  9
$DIMTAD
 70
     1
  9
$DIMZIN
 70
     0
  9
$DIMBLK
  1

  9
$DIMASO
 70
     1
  9
$DIMSHO
 70
     1
  9
$DIMPOST
  1

  9
$DIMAPOST
  1

  9
$DIMALT
 70
     0
  9
$DIMALTD
 70
     3
  9
$DIMALTF
 40
0.0393700787
  9
$DIMLFAC
 40
1.0
  9
$DIMTOFL
 70
     1
  9
$DIMTVP
 40
0.0
  9
$DIMTIX
 70
     0
  9
$DIMSOXD
 70
     0
  9
$DIMSAH
 70
     0
  9
$DIMBLK1
  1

  9
$DIMBLK2
  1

  9
$DIMSTYLE
  2
ISO-25
  9
$DIMCLRD
 70
     0
  9
$DIMCLRE
 70
     0
  9
$DIMCLRT
 70
     0
  9
$DIMTFAC
 40
1.0
  9
$DIMGAP
 40
1.524
  9
$DIMJUST
 70
     0
  9
$DIMSD1
 70
     0
  9
$DIMSD2
 70
     0
  9
$DIMTOLJ
 70
     0
  9
$DIMTZIN
 70
     0
  9
$DIMALTZ
 70
     0
  9
$DIMALTTZ
 70
     0
  9
$DIMUPT
 70
     0
  9
$DIMDEC
 70
     2
  9
$DIMTDEC
 70
     2
  9
$DIMALTU
 70
     2
  9
$DIMALTTD
 70
     3
  9
$DIMTXSTY
  7
Standard
  9
$DIMAUNIT
 70
     0
  9
$DIMADEC
 70
     2
  9
$DIMALTRND
 40
0.0
  9
$DIMAZIN
 70
     0
  9
$DIMDSEP
 70
    44
  9
$DIMATFIT
 70
     3
  9
$DIMFRAC
 70
     0
  9
$DIMLDRBLK
  1

  9
$DIMLUNIT
 70
     2
  9
$DIMLWD
 70
    -2
  9
$DIMLWE
 70
    -2
  9
$DIMTMOVE
 70
     0
  9
$LUNITS
 70
     2
  9
$LUPREC
 70
     2
  9
$SKETCHINC
 40
1.0
  9
$FILLETRAD
 40
10.0
  9
$AUNITS
 70
     0
  9
$AUPREC
 70
     2
  9
$MENU
  1
.
  9
$ELEVATION
 40
0.0
  9
$PELEVATION
 40
0.0
  9
$THICKNESS
 40
0.0
  9
$LIMCHECK
 70
     0
  9
$CHAMFERA
 40
0.0
  9
$CHAMFERB
 40
0.0
  9
$CHAMFERC
 40
0.0
  9
$CHAMFERD
 40
0.0
  9
$SKPOLY
 70
     0
  9
$TDCREATE
 40
2459741.614560475
  9
$TDUCREATE
 40
2459741.489560475
  9
$TDUPDATE
 40
2459741.61456066
  9
$TDUUPDATE
 40
2459741.48956066
  9
$TDINDWG
 40
0.0000000116
  9
$TDUSRTIMER
 40
0.0000000116
  9
$USRTIMER
 70
     1
  9
$ANGBASE
 50
0.0
  9
$ANGDIR
 70
     0
  9
$PDMODE
 70
     0
  9
$PDSIZE
 40
-1.0
  9
$PLINEWID
 40
0.0
  9
$SPLFRAME
 70
     0
  9
$SPLINETYPE
 70
     6
  9
$SPLINESEGS
 70
     8
  9
$HANDSEED
  5
145
  9
$SURFTAB1
 70
     6
  9
$SURFTAB2
 70
     6
  9
$SURFTYPE
 70
     6
  9
$SURFU
 70
     6
  9
$SURFV
 70
     6
  9
$UCSBASE
  2

  9
$UCSNAME
  2

  9
$UCSORG
 10
0.0
 20
0.0
 30
0.0
  9
$UCSXDIR
 10
1.0
 20
0.0
 30
0.0
  9
$UCSYDIR
 10
0.0
 20
1.0
 30
0.0
  9
$UCSORTHOREF
  2

  9
$UCSORTHOVIEW
 70
     0
  9
$UCSORGTOP
 10
0.0
 20
0.0
 30
0.0
  9
$UCSORGBOTTOM
 10
0.0
 20
0.0
 30
0.0
  9
$UCSORGLEFT
 10
0.0
 20
0.0
 30
0.0
  9
$UCSORGRIGHT
 10
0.0
 20
0.0
 30
0.0
  9
$UCSORGFRONT
 10
0.0
 20
0.0
 30
0.0
  9
$UCSORGBACK
 10
0.0
 20
0.0
 30
0.0
  9
$PUCSBASE
  2

  9
$PUCSNAME
  2

  9
$PUCSORG
 10
0.0
 20
0.0
 30
0.0
  9
$PUCSXDIR
 10
1.0
 20
0.0
 30
0.0
  9
$PUCSYDIR
 10
0.0
 20
1.0
 30
0.0
  9
$PUCSORTHOREF
  2

  9
$PUCSORTHOVIEW
 70
     0
  9
$PUCSORGTOP
 10
0.0
 20
0.0
 30
0.0
  9
$PUCSORGBOTTOM
 10
0.0
 20
0.0
 30
0.0
  9
$PUCSORGLEFT
 10
0.0
 20
0.0
 30
0.0
  9
$PUCSORGRIGHT
 10
0.0
 20
0.0
 30
0.0
  9
$PUCSORGFRONT
 10
0.0
 20
0.0
 30
0.0
  9
$PUCSORGBACK
 10
0.0
 20
0.0
 30
0.0
  9
$USERI1
 70
     0
  9
$USERI2
 70
     0
  9
$USERI3
 70
     0
  9
$USERI4
 70
     0
  9
$USERI5
 70
     0
  9
$USERR1
 40
0.0
  9
$USERR2
 40
0.0
  9
$USERR3
 40
0.0
  9
$USERR4
 40
0.0
  9
$USERR5
 40
0.0
  9
$WORLDVIEW
 70
     1
  9
$SHADEDGE
 70
     3
  9
$SHADEDIF
 70
    70
  9
$TILEMODE
 70
     1
  9
$MAXACTVP
 70
    64
  9
$PINSBASE
 10
0.0
 20
0.0
 30
0.0
  9
$PLIMCHECK
 70
     0
  9
$PEXTMIN
 10
1.0000000000E+20
 20
1.0000000000E+20
 30
1.0000000000E+20
  9
$PEXTMAX
 10
-1.0000000000E+20
 20
-1.0000000000E+20
 30
-1.0000000000E+20
  9
$PLIMMIN
 10
0.0
 20
0.0
  9
$PLIMMAX
 10
420.0
 20
297.0
  9
$UNITMODE
 70
     0
  9
$VISRETAIN
 70
     1
  9
$PLINEGEN
 70
     0
  9
$PSLTSCALE
 70
     1
  9
$TREEDEPTH
 70
  3020
  9
$CMLSTYLE
  2
Standard
  9
$CMLJUST
 70
     0
  9
$CMLSCALE
 40
20.0
  9
$PROXYGRAPHICS
 70
     1
  9
$MEASUREMENT
 70
     1
  9
$CELWEIGHT
370
    -1
  9
$ENDCAPS
280
     0
  9
$JOINSTYLE
280
     0
  9
$LWDISPLAY
290
     1
  9
$INSUNITS
 70
     4
  9
$HYPERLINKBASE
  1

  9
$STYLESHEET
  1

  9
$XEDIT
290
     1
  9
$CEPSNTYPE
380
     0
  9
$PSTYLEMODE
290
     1
  9
$FINGERPRINTGUID
  2
{08f31f5a-e7cd-43f0-9809-4755397c5cc5}
  9
$VERSIONGUID
  2
{FAEB1C32-E019-11D5-929B-00C0DF256EC4}
  9
$EXTNAMES
290
     1
  9
$PSVPSCALE
 40
0.0
  9
$OLESTARTUP
290
     0
  0
ENDSEC
  0
SECTION
  2
CLASSES
  0
CLASS
  1
ACDBDICTIONARYWDFLT
  2
AcDbDictionaryWithDefault
  3
ObjectDBX Classes
 90
        0
280
     0
281
     0
  0
CLASS
  1
VISUALSTYLE
  2
AcDbVisualStyle
  3
ObjectDBX Classes
 90
     4095
280
     0
281
     0
  0
CLASS
  1
MATERIAL
  2
AcDbMaterial
  3
ObjectDBX Classes
 90
     1153
280
     0
281
     0
  0
CLASS
  1
SCALE
  2
AcDbScale
  3
ObjectDBX Classes
 90
     1153
280
     0
281
     0
  0
CLASS
  1
TABLESTYLE
  2
AcDbTableStyle
  3
ObjectDBX Classes
 90
     4095
280
     0
281
     0
  0
CLASS
  1
MLEADERSTYLE
  2
AcDbMLeaderStyle
  3
ACDB_MLEADERSTYLE_CLASS
 90
     4095
280
     0
281
     0
  0
CLASS
  1
SUN
  2
AcDbSun
  3
SCENEOE
 90
     1153
280
     0
281
     0
  0
CLASS
  1
ACDBPLACEHOLDER
  2
AcDbPlaceHolder
  3
ObjectDBX Classes
 90
        0
280
     0
281
     0
  0
CLASS
  1
LAYOUT
  2
AcDbLayout
  3
ObjectDBX Classes
 90
        0
280
     0
281
     0
  0
ENDSEC
  0
SECTION
  2
TABLES
  0
TABLE
  2
VPORT
  5
8
330
0
100
AcDbSymbolTable
 70
     1
  0
VPORT
  5
29
330
8
100
AcDbSymbolTableRecord
100
AcDbViewportTableRecord
  2
*Active
 70
     0
 10
0.0
 20
0.0
 11
1.0
 21
1.0
 12
139.7
 22
107.95
 13
0.0
 23
0.0
 14
10.0
 24
10.0
 15
10.0
 25
10.0
 16
0.0
 26
0.0
 36
1.0
 17
0.0
 27
0.0
 37
0.0
 40
215.9
 41
1.2941176471
 42
50.0
 43
0.0
 44
0.0
 50
0.0
 51
0.0
 71
     0
 72
  2000
 73
     1
 74
     3
 75
     0
 76
     0
 77
     0
 78
     0
281
     0
 65
     1
110
0.0
120
0.0
130
0.0
111
1.0
121
0.0
131
0.0
112
0.0
122
1.0
132
0.0
 79
     0
146
0.0
  0
ENDTAB
  0
TABLE
  2
LTYPE
  5
5
330
0
100
AcDbSymbolTable
 70
     6
  0
LTYPE
  5
14
330
5
100
AcDbSymbolTableRecord
100
AcDbLinetypeTableRecord
  2
ByBlock
 70
     0
  3

 72
    65
 73
     0
 40
0.0
  0
LTYPE
  5
15
330
5
100
AcDbSymbolTableRecord
100
AcDbLinetypeTableRecord
  2
ByLayer
 70
     0
  3

 72
    65
 73
     0
 40
0.0
  0
LTYPE
  5
16
330
5
100
AcDbSymbolTableRecord
100
AcDbLinetypeTableRecord
  2
Continuous
 70
     0
  3
Solid line
 72
    65
 73
     0
 40
0.0
  0
LTYPE
  5
6E
330
5
100
AcDbSymbolTableRecord
100
AcDbLinetypeTableRecord
  2
HIDDEN
 70
     0
  3
Hidden __ __ __ __ __ __ __ __ __ __ __ __ __ __
 72
    65
 73
     2
 40
1.905
 49
1.27
 74
     0
 49
-0.635
 74
     0
  0
LTYPE
  5
6F
330
5
100
AcDbSymbolTableRecord
100
AcDbLinetypeTableRecord
  2
PHANTOM
 70
     0
  3
Phantom ______  __  __  ______  __  __  ______
 72
    65
 73
     6
 40
12.7
 49
6.35
 74
     0
 49
-1.27
 74
     0
 49
1.27
 74
     0
 49
-1.27
 74
     0
 49
1.27
 74
     0
 49
-1.27
 74
     0
  0
LTYPE
  5
70
330
5
100
AcDbSymbolTableRecord
100
AcDbLinetypeTableRecord
  2
CENTER
 70
     0
  3
Center ____ _ ____ _ ____ _ ____ _ ____ _ ____
 72
    65
 73
     4
 40
10.16
 49
6.35
 74
     0
 49
-1.27
 74
     0
 49
1.27
 74
     0
 49
-1.27
 74
     0
  0
LTYPE
  5
71
330
5
100
AcDbSymbolTableRecord
100
AcDbLinetypeTableRecord
  2
CENTERX2
 70
     0
  3
Center (2x) ________  __  ________  __  _____
 72
    65
 73
     4
 40
20.32
 49
12.7
 74
     0
 49
-2.54
 74
     0
 49
2.54
 74
     0
 49
-2.54
 74
     0
  0
LTYPE
  5
72
330
5
100
AcDbSymbolTableRecord
100
AcDbLinetypeTableRecord
  2
DOT2
 70
     0
  3
Dot (.5x) ........................................
 72
    65
 73
     2
 40
0.635
 49
0.0
 74
     0
 49
-0.635
 74
     0
  0
ENDTAB
  0
TABLE
  2
LAYER
  5
2
330
0
100
AcDbSymbolTable
 70
    17
  0
LAYER
  5
10
330
2
100
AcDbSymbolTableRecord
100
AcDbLayerTableRecord
  2
0
 70
     0
 62
     7
  6
Continuous
370
    -3
390
F
  0
LAYER
  5
73
330
2
100
AcDbSymbolTableRecord
100
AcDbLayerTableRecord
  2
FORMAT
 70
     0
 62
     7
  6
Continuous
370
    -3
390
F
  0
LAYER
  5
74
330
2
100
AcDbSymbolTableRecord
100
AcDbLayerTableRecord
  2
YARDIMCI_GEOMETRI
 70
     0
 62
    -6
  6
Continuous
290
     0
370
    -3
390
F
  0
LAYER
  5
75
330
2
100
AcDbSymbolTableRecord
100
AcDbLayerTableRecord
  2
SAYFA_CERCEVESI
 70
     0
 62
     7
  6
Continuous
370
    25
390
F
  0
LAYER
  5
76
330
2
100
AcDbSymbolTableRecord
100
AcDbLayerTableRecord
  2
ANTET
 70
     0
 62
     7
  6
Continuous
370
    -3
390
F
  0
LAYER
  5
77
330
2
100
AcDbSymbolTableRecord
100
AcDbLayerTableRecord
  2
OLCU
 70
     0
 62
   150
  6
Continuous
370
    -3
390
F
  0
LAYER
  5
78
330
2
100
AcDbSymbolTableRecord
100
AcDbLayerTableRecord
  2
METIN
 70
     0
 62
    96
  6
Continuous
370
    -3
390
F
  0
LAYER
  5
79
330
2
100
AcDbSymbolTableRecord
100
AcDbLayerTableRecord
  2
BALON
 70
     0
 62
     5
  6
Continuous
370
    -3
390
F
  0
LAYER
  5
7A
330
2
100
AcDbSymbolTableRecord
100
AcDbLayerTableRecord
  2
VURGU
 70
     0
 62
     7
  6
Continuous
370
    -3
390
F
  0
LAYER
  5
7B
330
2
100
AcDbSymbolTableRecord
100
AcDbLayerTableRecord
  2
SILIK
 70
     0
 62
     7
  6
Continuous
370
    -3
390
F
  0
LAYER
  5
7C
330
2
100
AcDbSymbolTableRecord
100
AcDbLayerTableRecord
  2
MODEL
 70
     0
 62
     7
  6
Continuous
370
    -3
390
F
  0
LAYER
  5
7D
330
2
100
AcDbSymbolTableRecord
100
AcDbLayerTableRecord
  2
DETAYLANDıRMA
 70
     0
 62
   190
  6
Continuous
370
    -3
390
F
  0
LAYER
  5
7E
330
2
100
AcDbSymbolTableRecord
100
AcDbLayerTableRecord
  2
TOLERANS
 70
     0
 62
   230
  6
Continuous
370
    -3
390
F
  0
LAYER
  5
7F
330
2
100
AcDbSymbolTableRecord
100
AcDbLayerTableRecord
  2
MERKEZ_CIZGILERI
 70
     0
 62
    30
  6
Continuous
370
    -3
390
F
  0
LAYER
  5
80
330
2
100
AcDbSymbolTableRecord
100
AcDbLayerTableRecord
  2
KESIT-DETAY_CIZGILERI
 70
     0
 62
     7
  6
Continuous
370
    -3
390
F
  0
LAYER
  5
81
330
2
100
AcDbSymbolTableRecord
100
AcDbLayerTableRecord
  2
\U+041E\U+0421\U+0415\U+0412\U+042B\U+0415
 70
     0
 62
     7
  6
Continuous
370
    -3
390
F
  0
LAYER
  5
82
330
2
100
AcDbSymbolTableRecord
100
AcDbLayerTableRecord
  2
\U+0412\U+041E\U+0414\U+042F\U+041D\U+042B\U+0415_\U+0417\U+041D\U+0410\U+041A\U+0418
 70
     0
 62
    11
  6
Continuous
370
    -3
390
F
  0
ENDTAB
  0
TABLE
  2
STYLE
  5
3
330
0
100
AcDbSymbolTable
 70
     1
  0
STYLE
  5
11
330
3
100
AcDbSymbolTableRecord
100
AcDbTextStyleTableRecord
  2
Standard
 70
     0
 40
0.0
 41
1.0
 50
0.0
 71
     0
 42
3.5
  3
txt
  4

  0
ENDTAB
  0
TABLE
  2
VIEW
  5
6
330
0
100
AcDbSymbolTable
 70
     0
  0
ENDTAB
  0
TABLE
  2
UCS
  5
7
330
0
100
AcDbSymbolTable
 70
     0
  0
ENDTAB
  0
TABLE
  2
APPID
  5
9
330
0
100
AcDbSymbolTable
 70
     1
  0
APPID
  5
12
330
9
100
AcDbSymbolTableRecord
100
AcDbRegAppTableRecord
  2
ACAD
 70
     0
  0
ENDTAB
  0
TABLE
  2
DIMSTYLE
  5
A
330
0
100
AcDbSymbolTable
 70
     1
100
AcDbDimStyleTable
  0
DIMSTYLE
105
27
330
A
100
AcDbSymbolTableRecord
100
AcDbDimStyleTableRecord
  2
ISO-25
 70
     0
 41
2.5
 42
0.625
 43
3.75
 44
1.25
 73
     0
 74
     0
 77
     1
 78
     8
140
2.5
141
2.5
143
0.0393700787
147
0.625
171
     3
172
     1
178
     0
271
     2
272
     2
274
     3
278
    44
283
     0
284
     8
340
11
  0
ENDTAB
  0
TABLE
  2
BLOCK_RECORD
  5
1
330
0
100
AcDbSymbolTable
 70
     5
  0
BLOCK_RECORD
  5
1F
330
1
100
AcDbSymbolTableRecord
100
AcDbBlockTableRecord
  2
*Model_Space
340
22
  0
BLOCK_RECORD
  5
1B
330
1
100
AcDbSymbolTableRecord
100
AcDbBlockTableRecord
  2
*Paper_Space
340
1E
  0
BLOCK_RECORD
  5
23
330
1
100
AcDbSymbolTableRecord
100
AcDbBlockTableRecord
  2
*Paper_Space0
340
26
  0
BLOCK_RECORD
  5
C9
330
1
100
AcDbSymbolTableRecord
100
AcDbBlockTableRecord
  2
SW_CENTERMARKSYMBOL_0
340
0
102
{BLKREFS
331
D4
102
}
  0
BLOCK_RECORD
  5
F4
330
1
100
AcDbSymbolTableRecord
100
AcDbBlockTableRecord
  2
SW_CENTERMARKSYMBOL_1
340
0
102
{BLKREFS
331
FF
102
}
  0
BLOCK_RECORD
  5
100
330
1
100
AcDbSymbolTableRecord
100
AcDbBlockTableRecord
  2
SW_CENTERMARKSYMBOL_2
340
0
102
{BLKREFS
331
10B
102
}
  0
BLOCK_RECORD
  5
10C
330
1
100
AcDbSymbolTableRecord
100
AcDbBlockTableRecord
  2
SW_CENTERMARKSYMBOL_3
340
0
102
{BLKREFS
331
117
102
}
  0
ENDTAB
  0
ENDSEC
  0
SECTION
  2
BLOCKS
  0
BLOCK
  5
20
330
1F
100
AcDbEntity
  8
0
100
AcDbBlockBegin
  2
*Model_Space
 70
     0
 10
0.0
 20
0.0
 30
0.0
  3
*Model_Space
  1

  0
ENDBLK
  5
21
330
1F
100
AcDbEntity
  8
0
100
AcDbBlockEnd
  0
BLOCK
  5
1C
330
1B
100
AcDbEntity
 67
     1
  8
0
100
AcDbBlockBegin
  2
*Paper_Space
 70
     0
 10
0.0
 20
0.0
 30
0.0
  3
*Paper_Space
  1

  0
ENDBLK
  5
1D
330
1B
100
AcDbEntity
 67
     1
  8
0
100
AcDbBlockEnd
  0
BLOCK
  5
24
330
23
100
AcDbEntity
  8
0
100
AcDbBlockBegin
  2
*Paper_Space0
 70
     0
 10
0.0
 20
0.0
 30
0.0
  3
*Paper_Space0
  1

  0
ENDBLK
  5
25
330
23
100
AcDbEntity
  8
0
100
AcDbBlockEnd
  0
BLOCK
  5
CA
330
C9
100
AcDbEntity
  8
0
100
AcDbBlockBegin
  2
SW_CENTERMARKSYMBOL_0
 70
     0
 10
0.0
 20
0.0
 30
0.0
  3
SW_CENTERMARKSYMBOL_0
  1

  0
LINE
  5
CC
330
C9
100
AcDbEntity
  8
FORMAT
 62
     0
100
AcDbLine
 10
0.0
 20
0.0
 30
0.0
 11
0.0
 21
2.5
 31
0.0
  0
LINE
  5
CD
330
C9
100
AcDbEntity
  8
FORMAT
 62
     0
100
AcDbLine
 10
0.0
 20
0.0
 30
0.0
 11
-2.5
 21
0.0
 31
0.0
  0
LINE
  5
CE
330
C9
100
AcDbEntity
  8
FORMAT
 62
     0
100
AcDbLine
 10
0.0
 20
0.0
 30
0.0
 11
0.0
 21
-2.5
 31
0.0
  0
LINE
  5
CF
330
C9
100
AcDbEntity
  8
FORMAT
 62
     0
100
AcDbLine
 10
0.0
 20
0.0
 30
0.0
 11
2.5
 21
0.0
 31
0.0
  0
LINE
  5
D0
330
C9
100
AcDbEntity
  8
FORMAT
 62
     0
100
AcDbLine
 10
0.0
 20
5.0
 30
0.0
 11
0.0
 21
15.5
 31
0.0
  0
LINE
  5
D1
330
C9
100
AcDbEntity
  8
FORMAT
 62
     0
100
AcDbLine
 10
-5.0
 20
0.0
 30
0.0
 11
-15.5
 21
0.0
 31
0.0
  0
LINE
  5
D2
330
C9
100
AcDbEntity
  8
FORMAT
 62
     0
100
AcDbLine
 10
0.0
 20
-5.0
 30
0.0
 11
0.0
 21
-15.5
 31
0.0
  0
LINE
  5
D3
330
C9
100
AcDbEntity
  8
FORMAT
 62
     0
100
AcDbLine
 10
5.0
 20
0.0
 30
0.0
 11
15.5
 21
0.0
 31
0.0
  0
ENDBLK
  5
CB
330
C9
100
AcDbEntity
  8
0
100
AcDbBlockEnd
  0
BLOCK
  5
F5
330
F4
100
AcDbEntity
  8
0
100
AcDbBlockBegin
  2
SW_CENTERMARKSYMBOL_1
 70
     0
 10
0.0
 20
0.0
 30
0.0
  3
SW_CENTERMARKSYMBOL_1
  1

  0
LINE
  5
F7
330
F4
100
AcDbEntity
  8
FORMAT
 62
     0
100
AcDbLine
 10
0.0
 20
0.0
 30
0.0
 11
0.0
 21
2.5
 31
0.0
  0
LINE
  5
F8
330
F4
100
AcDbEntity
  8
FORMAT
 62
     0
100
AcDbLine
 10
0.0
 20
0.0
 30
0.0
 11
-2.5
 21
0.0
 31
0.0
  0
LINE
  5
F9
330
F4
100
AcDbEntity
  8
FORMAT
 62
     0
100
AcDbLine
 10
0.0
 20
0.0
 30
0.0
 11
0.0
 21
-2.5
 31
0.0
  0
LINE
  5
FA
330
F4
100
AcDbEntity
  8
FORMAT
 62
     0
100
AcDbLine
 10
0.0
 20
0.0
 30
0.0
 11
2.5
 21
0.0
 31
0.0
  0
LINE
  5
FB
330
F4
100
AcDbEntity
  8
FORMAT
 62
     0
100
AcDbLine
 10
0.0
 20
5.0
 30
0.0
 11
0.0
 21
18.5
 31
0.0
  0
LINE
  5
FC
330
F4
100
AcDbEntity
  8
FORMAT
 62
     0
100
AcDbLine
 10
-5.0
 20
0.0
 30
0.0
 11
-18.5
 21
0.0
 31
0.0
  0
LINE
  5
FD
330
F4
100
AcDbEntity
  8
FORMAT
 62
     0
100
AcDbLine
 10
0.0
 20
-5.0
 30
0.0
 11
0.0
 21
-18.5
 31
0.0
  0
LINE
  5
FE
330
F4
100
AcDbEntity
  8
FORMAT
 62
     0
100
AcDbLine
 10
5.0
 20
0.0
 30
0.0
 11
18.5
 21
0.0
 31
0.0
  0
ENDBLK
  5
F6
330
F4
100
AcDbEntity
  8
0
100
AcDbBlockEnd
  0
BLOCK
  5
101
330
100
100
AcDbEntity
  8
0
100
AcDbBlockBegin
  2
SW_CENTERMARKSYMBOL_2
 70
     0
 10
0.0
 20
0.0
 30
0.0
  3
SW_CENTERMARKSYMBOL_2
  1

  0
LINE
  5
103
330
100
100
AcDbEntity
  8
FORMAT
 62
     0
100
AcDbLine
 10
0.0
 20
0.0
 30
0.0
 11
0.0
 21
2.5
 31
0.0
  0
LINE
  5
104
330
100
100
AcDbEntity
  8
FORMAT
 62
     0
100
AcDbLine
 10
0.0
 20
0.0
 30
0.0
 11
-2.5
 21
0.0
 31
0.0
  0
LINE
  5
105
330
100
100
AcDbEntity
  8
FORMAT
 62
     0
100
AcDbLine
 10
0.0
 20
0.0
 30
0.0
 11
0.0
 21
-2.5
 31
0.0
  0
LINE
  5
106
330
100
100
AcDbEntity
  8
FORMAT
 62
     0
100
AcDbLine
 10
0.0
 20
0.0
 30
0.0
 11
2.5
 21
0.0
 31
0.0
  0
LINE
  5
107
330
100
100
AcDbEntity
  8
FORMAT
 62
     0
100
AcDbLine
 10
0.0
 20
5.0
 30
0.0
 11
0.0
 21
9.5
 31
0.0
  0
LINE
  5
108
330
100
100
AcDbEntity
  8
FORMAT
 62
     0
100
AcDbLine
 10
-5.0
 20
0.0
 30
0.0
 11
-9.5
 21
0.0
 31
0.0
  0
LINE
  5
109
330
100
100
AcDbEntity
  8
FORMAT
 62
     0
100
AcDbLine
 10
0.0
 20
-5.0
 30
0.0
 11
0.0
 21
-9.5
 31
0.0
  0
LINE
  5
10A
330
100
100
AcDbEntity
  8
FORMAT
 62
     0
100
AcDbLine
 10
5.0
 20
0.0
 30
0.0
 11
9.5
 21
0.0
 31
0.0
  0
ENDBLK
  5
102
330
100
100
AcDbEntity
  8
0
100
AcDbBlockEnd
  0
BLOCK
  5
10D
330
10C
100
AcDbEntity
  8
0
100
AcDbBlockBegin
  2
SW_CENTERMARKSYMBOL_3
 70
     0
 10
0.0
 20
0.0
 30
0.0
  3
SW_CENTERMARKSYMBOL_3
  1

  0
LINE
  5
10F
330
10C
100
AcDbEntity
  8
FORMAT
 62
     0
100
AcDbLine
 10
0.0
 20
0.0
 30
0.0
 11
0.0
 21
2.5
 31
0.0
  0
LINE
  5
110
330
10C
100
AcDbEntity
  8
FORMAT
 62
     0
100
AcDbLine
 10
0.0
 20
0.0
 30
0.0
 11
-2.5
 21
0.0
 31
0.0
  0
LINE
  5
111
330
10C
100
AcDbEntity
  8
FORMAT
 62
     0
100
AcDbLine
 10
0.0
 20
0.0
 30
0.0
 11
0.0
 21
-2.5
 31
0.0
  0
LINE
  5
112
330
10C
100
AcDbEntity
  8
FORMAT
 62
     0
100
AcDbLine
 10
0.0
 20
0.0
 30
0.0
 11
2.5
 21
0.0
 31
0.0
  0
LINE
  5
113
330
10C
100
AcDbEntity
  8
FORMAT
 62
     0
100
AcDbLine
 10
0.0
 20
5.0
 30
0.0
 11
0.0
 21
9.5
 31
0.0
  0
LINE
  5
114
330
10C
100
AcDbEntity
  8
FORMAT
 62
     0
100
AcDbLine
 10
-5.0
 20
0.0
 30
0.0
 11
-9.5
 21
0.0
 31
0.0
  0
LINE
  5
115
330
10C
100
AcDbEntity
  8
FORMAT
 62
     0
100
AcDbLine
 10
0.0
 20
-5.0
 30
0.0
 11
0.0
 21
-9.5
 31
0.0
  0
LINE
  5
116
330
10C
100
AcDbEntity
  8
FORMAT
 62
     0
100
AcDbLine
 10
5.0
 20
0.0
 30
0.0
 11
9.5
 21
0.0
 31
0.0
  0
ENDBLK
  5
10E
330
10C
100
AcDbEntity
  8
0
100
AcDbBlockEnd
  0
ENDSEC
  0
SECTION
  2
ENTITIES
  0
LINE
  5
83
330
1F
100
AcDbEntity
  8
0
  6
Continuous
 62
     7
370
    25
100
AcDbLine
 10
171.1807140607
 20
-21.7615714286
 30
0.0
 11
221.1807140607
 21
-21.7615714286
 31
0.0
  0
LINE
  5
84
330
1F
100
AcDbEntity
  8
0
  6
Continuous
 62
     7
370
    25
100
AcDbLine
 10
61.1807140607
 20
-21.7615714286
 30
0.0
 11
111.1807140607
 21
-21.7615714286
 31
0.0
  0
LINE
  5
85
330
1F
100
AcDbEntity
  8
0
  6
Continuous
 62
     7
370
    25
100
AcDbLine
 10
64.2699522144
 20
172.2384285714
 30
0.0
 11
61.1807140607
 21
172.2384285714
 31
0.0
  0
LINE
  5
86
330
1F
100
AcDbEntity
  8
0
  6
Continuous
 62
     7
370
    25
100
AcDbLine
 10
125.2342788306
 20
172.2384285714
 30
0.0
 11
78.1729300942
 21
172.2384285714
 31
0.0
  0
LINE
  5
87
330
1F
100
AcDbEntity
  8
0
  6
Continuous
 62
     7
370
    25
100
AcDbLine
 10
204.2699522144
 20
172.2384285714
 30
0.0
 11
157.1676651547
 21
172.2384285714
 31
0.0
  0
LINE
  5
88
330
1F
100
AcDbEntity
  8
0
  6
Continuous
 62
     7
370
    25
100
AcDbLine
 10
221.1807140607
 20
172.2384285714
 30
0.0
 11
218.1729300942
 21
172.2384285714
 31
0.0
  0
LINE
  5
89
330
1F
100
AcDbEntity
  8
0
  6
Continuous
 62
     7
370
    25
100
AcDbLine
 10
125.1807140607
 20
220.2384285714
 30
0.0
 11
125.1807140607
 21
172.2296175468
 31
0.0
  0
LINE
  5
8A
330
1F
100
AcDbEntity
  8
0
  6
Continuous
 62
     7
370
    25
100
AcDbLine
 10
157.1807140607
 20
172.2362984566
 30
0.0
 11
157.1807140607
 21
220.2384285714
 31
0.0
  0
LINE
  5
8B
330
1F
100
AcDbEntity
  8
0
  6
Continuous
 62
     7
370
    25
100
AcDbLine
 10
64.1807140607
 20
187.2384285714
 30
0.0
 11
64.1807140607
 21
172.2384285714
 31
0.0
  0
LINE
  5
8C
330
1F
100
AcDbEntity
  8
0
  6
Continuous
 62
     7
370
    25
100
AcDbLine
 10
78.1807140607
 20
172.2378958489
 30
0.0
 11
78.1807140607
 21
187.2384285714
 31
0.0
  0
LINE
  5
8D
330
1F
100
AcDbEntity
  8
0
  6
Continuous
 62
     7
370
    25
100
AcDbLine
 10
204.1807140607
 20
187.2384285714
 30
0.0
 11
204.1807140607
 21
172.2384285714
 31
0.0
  0
LINE
  5
8E
330
1F
100
AcDbEntity
  8
0
  6
Continuous
 62
     7
370
    25
100
AcDbLine
 10
218.1807140607
 20
172.2378958489
 30
0.0
 11
218.1807140607
 21
187.2384285714
 31
0.0
  0
LINE
  5
8F
330
1F
100
AcDbEntity
  8
0
  6
Continuous
 62
     7
370
    25
100
AcDbLine
 10
221.1807140607
 20
77.2384285714
 30
0.0
 11
61.1807140607
 21
77.2384285714
 31
0.0
  0
LINE
  5
90
330
1F
100
AcDbEntity
  8
0
  6
Continuous
 62
     7
370
    25
100
AcDbLine
 10
61.1807140607
 20
84.2384285714
 30
0.0
 11
61.1807140607
 21
77.2384285714
 31
0.0
  0
LINE
  5
91
330
1F
100
AcDbEntity
  8
0
  6
Continuous
 62
     7
370
    25
100
AcDbLine
 10
221.1807140607
 20
84.2384285714
 30
0.0
 11
61.1807140607
 21
84.2384285714
 31
0.0
  0
LINE
  5
92
330
1F
100
AcDbEntity
  8
0
  6
Continuous
 62
     7
370
    25
100
AcDbLine
 10
221.1807140607
 20
84.2384285714
 30
0.0
 11
221.1807140607
 21
77.2384285714
 31
0.0
  0
LINE
  5
93
330
1F
100
AcDbEntity
  8
0
  6
Continuous
 62
     7
370
    25
100
AcDbLine
 10
61.1807140607
 20
73.2384285714
 30
0.0
 11
61.1807140607
 21
66.2384285714
 31
0.0
  0
LINE
  5
94
330
1F
100
AcDbEntity
  8
0
  6
Continuous
 62
     7
370
    25
100
AcDbLine
 10
221.1807140607
 20
73.2384285714
 30
0.0
 11
61.1807140607
 21
73.2384285714
 31
0.0
  0
LINE
  5
95
330
1F
100
AcDbEntity
  8
0
  6
Continuous
 62
     7
370
    25
100
AcDbLine
 10
221.1807140607
 20
73.2384285714
 30
0.0
 11
221.1807140607
 21
66.2384285714
 31
0.0
  0
LINE
  5
96
330
1F
100
AcDbEntity
  8
0
  6
Continuous
 62
     7
370
    25
100
AcDbLine
 10
221.1807140607
 20
66.2384285714
 30
0.0
 11
61.1807140607
 21
66.2384285714
 31
0.0
  0
SPLINE
  5
97
330
1F
100
AcDbEntity
  8
0
  6
Continuous
 62
     7
370
    25
100
AcDbSpline
210
0.0
220
0.0
230
1.0
 70
     8
 71
     3
 72
    12
 73
     8
 74
     0
 42
0.00000001
 43
0.00000001
 40
0.0
 40
0.0
 40
0.0
 40
0.0
 40
0.2144572489416968
 40
0.4289009548163589
 40
0.643695974025615
 40
0.8587210172394718
 40
1.0
 40
1.0
 40
1.0
 40
1.0
 10
71.18071406074247
 20
171.9855215510111
 30
0.0
 10
70.39515335729499
 20
171.9912360719099
 30
0.0
 10
68.82408155889458
 20
172.0026647528331
 30
0.0
 10
66.72471024926563
 20
172.0829460154728
 30
0.0
 10
65.15572619637553
 20
172.1699100342746
 30
0.0
 10
64.26410362163199
 20
172.2323423473315
 30
0.0
 10
64.26829162064206
 20
172.2321315388344
 30
0.0
 10
64.26995221439573
 20
172.2320479506405
 30
0.0
  0
SPLINE
  5
98
330
1F
100
AcDbEntity
  8
0
  6
Continuous
 62
     7
370
    25
100
AcDbSpline
210
0.0
220
0.0
230
1.0
 70
     8
 71
     3
 72
    13
 73
     9
 74
     0
 42
0.00000001
 43
0.00000001
 40
0.0
 40
0.0
 40
0.0
 40
0.0
 40
0.004317606076624
 40
0.2184799288714592
 40
0.4326382001915131
 40
0.6472788307755899
 40
0.8621394886781332
 40
1.0
 40
1.0
 40
1.0
 40
1.0
 10
78.17293009423479
 20
172.2378816930128
 30
0.0
 10
78.1755206876616
 20
172.2380636699815
 30
0.0
 10
78.30661015195724
 20
172.2472720865163
 30
0.0
 10
77.83909039189028
 20
172.213381114006
 30
0.0
 10
76.7429325837234
 20
172.1415560581739
 30
0.0
 10
74.9283420455268
 20
172.0513015502304
 30
0.0
 10
72.97487776563611
 20
171.9939763813186
 30
0.0
 10
71.68489987843617
 20
171.9878974799859
 30
0.0
 10
71.18071406074247
 20
171.9855215510111
 30
0.0
  0
SPLINE
  5
99
330
1F
100
AcDbEntity
  8
0
  6
Continuous
 62
     7
370
    25
100
AcDbSpline
210
0.0
220
0.0
230
1.0
 70
     8
 71
     3
 72
    17
 73
    13
 74
     0
 42
0.00000001
 43
0.00000001
 40
0.0
 40
0.0
 40
0.0
 40
0.0
 40
0.1048543060656721
 40
0.2127754125242453
 40
0.3176224081069665
 40
0.42546121322104
 40
0.53120547709734
 40
0.6399791312906868
 40
0.7462962390062202
 40
0.8557499829133735
 40
0.9610949797156524
 40
1.0
 40
1.0
 40
1.0
 40
1.0
 10
141.1807140607425
 20
170.9097408860403
 30
0.0
 10
140.3007902500832
 20
170.916828635431
 30
0.0
 10
138.515206435474
 20
170.9312114381699
 30
0.0
 10
135.9248209368946
 20
171.0437314611093
 30
0.0
 10
133.4614571552348
 20
171.2108448999943
 30
0.0
 10
131.2306893358754
 20
171.418198570996
 30
0.0
 10
129.2538087186804
 20
171.6447198997843
 30
0.0
 10
127.6227832129186
 20
171.8620803291799
 30
0.0
 10
126.3512241375789
 20
172.0504561012389
 30
0.0
 10
125.5437444309049
 20
172.1785877782628
 30
0.0
 10
125.1666207879925
 20
172.2407433311696
 30
0.0
 10
125.2199071946222
 20
172.2319769005211
 30
0.0
 10
125.2342788305685
 20
172.2296125461238
 30
0.0
  0
SPLINE
  5
9A
330
1F
100
AcDbEntity
  8
0
  6
Continuous
 62
     7
370
    25
100
AcDbSpline
210
0.0
220
0.0
230
1.0
 70
     8
 71
     3
 72
    16
 73
    12
 74
     0
 42
0.00000001
 43
0.00000001
 40
0.0
 40
0.0
 40
0.0
 40
0.0
 40
0.0978590208592675
 40
0.2055097526147983
 40
0.3100449646967071
 40
0.4175465117526895
 40
0.5232584896149385
 40
0.6319951041819853
 40
0.738351504903856
 40
0.8478425825954847
 40
0.9999999999999999
 40
0.9999999999999999
 40
0.9999999999999999
 40
0.9999999999999999
 10
157.1676651547159
 20
172.2362877715804
 30
0.0
 10
157.1362958957033
 20
172.2310755611763
 30
0.0
 10
157.0704185897302
 20
172.2201296099363
 30
0.0
 10
156.4246823062372
 20
172.1153712533359
 30
0.0
 10
155.3731768375105
 20
171.9541520947734
 30
0.0
 10
153.9274813230235
 20
171.7506025093144
 30
0.0
 10
152.1091740270617
 20
171.5253266558124
 30
0.0
 10
149.9883457486083
 20
171.3051475724197
 30
0.0
 10
147.589675868101
 20
171.1145101075485
 30
0.0
 10
144.6580432662991
 20
170.9499520422716
 30
0.0
 10
142.4593362732319
 20
170.9245266237453
 30
0.0
 10
141.1807140607425
 20
170.9097408860403
 30
0.0
  0
SPLINE
  5
9B
330
1F
100
AcDbEntity
  8
0
  6
Continuous
 62
     7
370
    25
100
AcDbSpline
210
0.0
220
0.0
230
1.0
 70
     8
 71
     3
 72
    12
 73
     8
 74
     0
 42
0.00000001
 43
0.00000001
 40
0.0
 40
0.0
 40
0.0
 40
0.0
 40
0.2144572489416968
 40
0.4289009548163589
 40
0.643695974025615
 40
0.8587210172394718
 40
1.0
 40
1.0
 40
1.0
 40
1.0
 10
211.1807140607425
 20
171.9855215510111
 30
0.0
 10
210.395153357295
 20
171.9912360719099
 30
0.0
 10
208.8240815588946
 20
172.0026647528331
 30
0.0
 10
206.7247102492657
 20
172.0829460154728
 30
0.0
 10
205.1557261963756
 20
172.1699100342746
 30
0.0
 10
204.264103621632
 20
172.2323423473315
 30
0.0
 10
204.2682916206421
 20
172.2321315388344
 30
0.0
 10
204.2699522143957
 20
172.2320479506405
 30
0.0
  0
SPLINE
  5
9C
330
1F
100
AcDbEntity
  8
0
  6
Continuous
 62
     7
370
    25
100
AcDbSpline
210
0.0
220
0.0
230
1.0
 70
     8
 71
     3
 72
    13
 73
     9
 74
     0
 42
0.00000001
 43
0.00000001
 40
0.0
 40
0.0
 40
0.0
 40
0.0
 40
0.0043176060766246
 40
0.2184799288714597
 40
0.4326382001915134
 40
0.6472788307755902
 40
0.8621394886781332
 40
1.0
 40
1.0
 40
1.0
 40
1.0
 10
218.1729300942348
 20
172.2378816930128
 30
0.0
 10
218.1755206876616
 20
172.2380636699815
 30
0.0
 10
218.3066101519575
 20
172.2472720865164
 30
0.0
 10
217.8390903918902
 20
172.2133811140061
 30
0.0
 10
216.7429325837234
 20
172.1415560581739
 30
0.0
 10
214.9283420455268
 20
172.0513015502304
 30
0.0
 10
212.9748777656361
 20
171.9939763813186
 30
0.0
 10
211.6848998784362
 20
171.9878974799859
 30
0.0
 10
211.1807140607425
 20
171.9855215510111
 30
0.0
  0
LINE
  5
9D
330
1F
100
AcDbEntity
  8
0
  6
Continuous
 62
     7
370
    25
100
AcDbLine
 10
111.1807140607
 20
65.2384285714
 30
0.0
 11
171.1807140607
 21
65.2384285714
 31
0.0
  0
LINE
  5
9E
330
1F
100
AcDbEntity
  8
0
  6
Continuous
 62
     7
370
    25
100
AcDbLine
 10
111.1807140607
 20
-21.7615714286
 30
0.0
 11
111.1807140607
 21
65.2384285714
 31
0.0
  0
LINE
  5
9F
330
1F
100
AcDbEntity
  8
0
  6
Continuous
 62
     7
370
    25
100
AcDbLine
 10
171.1807140607
 20
35.3488115735
 30
0.0
 11
111.1807140607
 21
35.3488115735
 31
0.0
  0
LINE
  5
A0
330
1F
100
AcDbEntity
  8
0
  6
Continuous
 62
     7
370
    25
100
AcDbLine
 10
171.1807140607
 20
65.2384285714
 30
0.0
 11
171.1807140607
 21
-21.7615714286
 31
0.0
  0
LINE
  5
A1
330
1F
100
AcDbEntity
  8
0
  6
Continuous
 62
     7
370
    25
100
AcDbLine
 10
61.1807140607
 20
66.2384285714
 30
0.0
 11
61.1807140607
 21
-21.7615714286
 31
0.0
  0
LINE
  5
A2
330
1F
100
AcDbEntity
  8
0
  6
Continuous
 62
     7
370
    25
100
AcDbLine
 10
61.1807140607
 20
172.2384285714
 30
0.0
 11
61.1807140607
 21
84.2384285714
 31
0.0
  0
LINE
  5
A3
330
1F
100
AcDbEntity
  8
0
  6
Continuous
 62
     7
370
    25
100
AcDbLine
 10
221.1807140607
 20
66.2384285714
 30
0.0
 11
221.1807140607
 21
-21.7615714286
 31
0.0
  0
LINE
  5
A4
330
1F
100
AcDbEntity
  8
0
  6
Continuous
 62
     7
370
    25
100
AcDbLine
 10
221.1807140607
 20
172.2384285714
 30
0.0
 11
221.1807140607
 21
84.2384285714
 31
0.0
  0
LINE
  5
A5
330
1F
100
AcDbEntity
  8
0
  6
Continuous
 62
     7
370
    25
100
AcDbLine
 10
111.1807140607
 20
58.4401684162
 30
0.0
 11
171.1807140607
 21
58.4401684162
 31
0.0
  0
LINE
  5
A6
330
1F
100
AcDbEntity
  8
0
  6
Continuous
 62
     7
370
    25
100
AcDbLine
 10
61.1807140607
 20
77.2384285714
 30
0.0
 11
61.1807140607
 21
73.2384285714
 31
0.0
  0
LINE
  5
A7
330
1F
100
AcDbEntity
  8
0
  6
Continuous
 62
     7
370
    25
100
AcDbLine
 10
221.1807140607
 20
77.2384285714
 30
0.0
 11
221.1807140607
 21
73.2384285714
 31
0.0
  0
LINE
  5
A8
330
1F
100
AcDbEntity
  8
0
  6
Continuous
 62
     7
370
    25
100
AcDbLine
 10
141.1807140607
 20
220.2384285714
 30
0.0
 11
157.1807140607
 21
220.2384285714
 31
0.0
  0
LINE
  5
A9
330
1F
100
AcDbEntity
  8
0
  6
Continuous
 62
     7
370
    25
100
AcDbLine
 10
125.1807140607
 20
220.2384285714
 30
0.0
 11
141.1807140607
 21
220.2384285714
 31
0.0
  0
LINE
  5
AA
330
1F
100
AcDbEntity
  8
0
  6
Continuous
 62
     7
370
    25
100
AcDbLine
 10
71.1807140607
 20
187.2384285714
 30
0.0
 11
78.1807140607
 21
187.2384285714
 31
0.0
  0
LINE
  5
AB
330
1F
100
AcDbEntity
  8
0
  6
Continuous
 62
     7
370
    25
100
AcDbLine
 10
64.1807140607
 20
187.2384285714
 30
0.0
 11
71.1807140607
 21
187.2384285714
 31
0.0
  0
LINE
  5
AC
330
1F
100
AcDbEntity
  8
0
  6
Continuous
 62
     7
370
    25
100
AcDbLine
 10
211.1807140607
 20
187.2384285714
 30
0.0
 11
204.1807140607
 21
187.2384285714
 31
0.0
  0
LINE
  5
AD
330
1F
100
AcDbEntity
  8
0
  6
Continuous
 62
     7
370
    25
100
AcDbLine
 10
218.1807140607
 20
187.2384285714
 30
0.0
 11
211.1807140607
 21
187.2384285714
 31
0.0
  0
LINE
  5
AE
330
1F
100
AcDbEntity
  8
0
  6
Continuous
 62
     7
370
    25
100
AcDbLine
 10
377.1414331333
 20
187.2384285714
 30
0.0
 11
377.1414331333
 21
171.9916861472
 31
0.0
  0
LINE
  5
AF
330
1F
100
AcDbEntity
  8
0
  6
Continuous
 62
     7
370
    25
100
AcDbLine
 10
391.1414331333
 20
171.985521551
 30
0.0
 11
391.1414331333
 21
187.2384285714
 31
0.0
  0
LINE
  5
B0
330
1F
100
AcDbEntity
  8
0
  6
Continuous
 62
     7
370
    25
100
AcDbLine
 10
368.1414331333
 20
220.2384285714
 30
0.0
 11
368.1414331333
 21
170.917865208
 31
0.0
  0
LINE
  5
B1
330
1F
100
AcDbEntity
  8
0
  6
Continuous
 62
     7
370
    25
100
AcDbLine
 10
400.1414331333
 20
170.909740886
 30
0.0
 11
400.1414331333
 21
220.2384285714
 31
0.0
  0
LINE
  5
B2
330
1F
100
AcDbEntity
  8
0
  6
Continuous
 62
     7
370
    25
100
AcDbLine
 10
480.7230048745
 20
84.2384285714
 30
0.0
 11
495.7230048745
 21
84.2384285714
 31
0.0
  0
LINE
  5
B3
330
1F
100
AcDbEntity
  8
0
  6
Continuous
 62
     7
370
    25
100
AcDbLine
 10
495.7230048745
 20
84.2384285714
 30
0.0
 11
495.7230048745
 21
77.2384285714
 31
0.0
  0
LINE
  5
B4
330
1F
100
AcDbEntity
  8
0
  6
Continuous
 62
     7
370
    25
100
AcDbLine
 10
495.7230048745
 20
77.2384285714
 30
0.0
 11
474.1192081669
 21
77.2384285714
 31
0.0
  0
ARC
  5
B5
330
1F
100
AcDbEntity
  8
0
  6
Continuous
 62
     7
370
    25
100
AcDbCircle
 10
384.1414331333
 20
75.2384285714
 30
0.0
 40
89.99999999999996
100
AcDbArc
 50
1.2733443614
 51
358.7266556386
  0
LINE
  5
B6
330
1F
100
AcDbEntity
  8
0
  6
Continuous
 62
     7
370
    25
100
AcDbLine
 10
474.1192081669
 20
73.2384285714
 30
0.0
 11
495.7230048745
 21
73.2384285714
 31
0.0
  0
LINE
  5
B7
330
1F
100
AcDbEntity
  8
0
  6
Continuous
 62
     7
370
    25
100
AcDbLine
 10
495.7230048745
 20
73.2384285714
 30
0.0
 11
495.7230048745
 21
66.2384285714
 31
0.0
  0
LINE
  5
B8
330
1F
100
AcDbEntity
  8
0
  6
Continuous
 62
     7
370
    25
100
AcDbLine
 10
495.7230048745
 20
66.2384285714
 30
0.0
 11
480.7230048745
 21
66.2384285714
 31
0.0
  0
ARC
  5
B9
330
1F
100
AcDbEntity
  8
0
  6
Continuous
 62
     7
370
    25
100
AcDbCircle
 10
384.1414331333
 20
75.2384285714
 30
0.0
 40
96.99999999999999
100
AcDbArc
 50
5.3237604809
 51
354.6762395191
  0
LINE
  5
BA
330
1F
100
AcDbEntity
  8
0
  6
Continuous
 62
     7
370
    25
100
AcDbLine
 10
377.1414331333
 20
187.2384285714
 30
0.0
 11
391.1414331333
 21
187.2384285714
 31
0.0
  0
LINE
  5
BB
330
1F
100
AcDbEntity
  8
0
  6
Continuous
 62
     7
370
    25
100
AcDbLine
 10
368.1414331333
 20
220.2384285714
 30
0.0
 11
400.1414331333
 21
220.2384285714
 31
0.0
  0
LINE
  5
BC
330
1F
100
AcDbEntity
  8
0
  6
Continuous
 62
     7
370
    25
100
AcDbLine
 10
61.1807140607
 20
284.8179670457
 30
0.0
 11
221.1807140607
 21
284.8179670457
 31
0.0
  0
LINE
  5
BD
330
1F
100
AcDbEntity
  8
0
  6
Continuous
 62
     7
370
    25
100
AcDbLine
 10
221.1807140607
 20
478.3995387869
 30
0.0
 11
61.1807140607
 21
478.3995387869
 31
0.0
  0
LINE
  5
BE
330
1F
100
AcDbEntity
  8
0
  6
Continuous
 62
     7
370
    25
100
AcDbLine
 10
221.1807140607
 20
478.3995387869
 30
0.0
 11
221.1807140607
 21
284.8179670457
 31
0.0
  0
LINE
  5
BF
330
1F
100
AcDbEntity
  8
0
  6
Continuous
 62
     7
370
    25
100
AcDbLine
 10
61.1807140607
 20
478.3995387869
 30
0.0
 11
61.1807140607
 21
284.8179670457
 31
0.0
  0
LINE
  5
C0
330
1F
100
AcDbEntity
  8
0
  6
Continuous
 62
     7
370
    25
100
AcDbLine
 10
111.1807140607
 20
478.301126198
 30
0.0
 11
171.1807140607
 21
478.301126198
 31
0.0
  0
LINE
  5
C1
330
1F
100
AcDbEntity
  8
0
  6
Continuous
 62
     7
370
    25
100
AcDbLine
 10
111.1807140607
 20
293.3995387869
 30
0.0
 11
111.1807140607
 21
478.301126198
 31
0.0
  0
LINE
  5
C2
330
1F
100
AcDbEntity
  8
0
  6
Continuous
 62
     7
370
    25
100
AcDbLine
 10
171.1807140607
 20
293.3995387869
 30
0.0
 11
111.1807140607
 21
293.3995387869
 31
0.0
  0
LINE
  5
C3
330
1F
100
AcDbEntity
  8
0
  6
Continuous
 62
     7
370
    25
100
AcDbLine
 10
171.1807140607
 20
478.301126198
 30
0.0
 11
171.1807140607
 21
293.3995387869
 31
0.0
  0
SPLINE
  5
C4
330
1F
100
AcDbEntity
  8
0
  6
Continuous
 62
     7
370
    25
100
AcDbSpline
210
0.0
220
0.0
230
1.0
 70
    11
 71
     3
 72
   102
 73
    98
 74
     0
 42
0.00000001
 43
0.00000001
 40
0.0
 40
0.0
 40
0.0
 40
0.0
 40
0.03125
 40
0.03125
 40
0.046875
 40
0.046875
 40
0.0625
 40
0.0625
 40
0.09375
 40
0.09375
 40
0.109375
 40
0.109375
 40
0.1250000000000001
 40
0.1250000000000001
 40
0.1562500000000001
 40
0.1562500000000001
 40
0.1718750000000001
 40
0.1718750000000001
 40
0.1875
 40
0.1875
 40
0.203125
 40
0.203125
 40
0.21875
 40
0.21875
 40
0.25
 40
0.25
 40
0.2656249999999999
 40
0.2656249999999999
 40
0.2812499999999999
 40
0.2812499999999999
 40
0.3124999999999999
 40
0.3124999999999999
 40
0.3281249999999999
 40
0.3281249999999999
 40
0.3437499999999999
 40
0.3437499999999999
 40
0.3749999999999999
 40
0.3749999999999999
 40
0.4062499999999999
 40
0.4062499999999999
 40
0.4218749999999999
 40
0.4218749999999999
 40
0.4374999999999999
 40
0.4374999999999999
 40
0.46875
 40
0.46875
 40
0.484375
 40
0.484375
 40
0.5
 40
0.5
 40
0.5312500000000001
 40
0.5312500000000001
 40
0.5468750000000001
 40
0.5468750000000001
 40
0.5625000000000001
 40
0.5625000000000001
 40
0.5781250000000001
 40
0.5781250000000001
 40
0.5937500000000002
 40
0.5937500000000002
 40
0.6250000000000002
 40
0.6250000000000002
 40
0.6406250000000002
 40
0.6406250000000002
 40
0.6562500000000002
 40
0.6562500000000002
 40
0.6875000000000001
 40
0.6875000000000001
 40
0.7031250000000001
 40
0.7031250000000001
 40
0.7187500000000001
 40
0.7187500000000001
 40
0.75
 40
0.75
 40
0.78125
 40
0.78125
 40
0.796875
 40
0.796875
 40
0.8125
 40
0.8125
 40
0.84375
 40
0.84375
 40
0.859375
 40
0.859375
 40
0.875
 40
0.875
 40
0.90625
 40
0.90625
 40
0.9218750000000001
 40
0.9218750000000001
 40
0.9375000000000001
 40
0.9375000000000001
 40
0.9531250000000001
 40
0.9531250000000001
 40
0.9687500000000001
 40
0.9687500000000001
 40
1.0
 40
1.0
 40
1.0
 40
1.0
 10
141.1807140607425
 20
368.8179670457091
 30
0.0
 10
142.0407621659069
 20
368.8179670457091
 30
0.0
 10
142.8862103251479
 20
368.9024718909393
 30
0.0
 10
144.1334313709465
 20
369.1506412175709
 30
0.0
 10
144.5456541938359
 20
369.2537511081711
 30
0.0
 10
145.362917925711
 20
369.5016561103589
 30
0.0
 10
145.7688231231774
 20
369.6470719107932
 30
0.0
 10
146.9491303886027
 20
370.1367382711261
 30
0.0
 10
147.6953583259277
 20
370.536100973689
 30
0.0
 10
148.7545557415781
 20
371.2436020441658
 30
0.0
 10
149.0989495321473
 20
371.4988365409888
 30
0.0
 10
149.7600561219635
 20
372.0415772646792
 30
0.0
 10
150.0747589798773
 20
372.3271703366241
 30
0.0
 10
150.9728019059546
 20
373.2254095440851
 30
0.0
 10
151.5105226696951
 20
373.8791129602889
 30
0.0
 10
152.2233172008373
 20
374.9445760767503
 30
0.0
 10
152.4442715429423
 20
375.313130017778
 30
0.0
 10
152.8450899363285
 20
376.0627114173456
 30
0.0
 10
153.0262619021076
 20
376.445618294468
 30
0.0
 10
153.3506231579102
 20
377.2274935043729
 30
0.0
 10
153.4938127063372
 20
377.6264616723477
 30
0.0
 10
153.7415873957434
 20
378.4407527183189
 30
0.0
 10
153.8465912926068
 20
378.8584667794062
 30
0.0
 10
154.0973853335576
 20
380.1173922176998
 30
0.0
 10
154.1802337022303
 20
380.9616072796884
 30
0.0
 10
154.1809511458231
 20
382.2351618098973
 30
0.0
 10
154.160450069485
 20
382.6608937797972
 30
0.0
 10
154.0766287875849
 20
383.5148629451965
 30
0.0
 10
154.0135169608036
 20
383.9392817753916
 30
0.0
 10
153.7644390070785
 20
385.1903686071636
 30
0.0
 10
153.518729345993
 20
386.0012687364448
 30
0.0
 10
153.0298010230182
 20
387.1827407328394
 30
0.0
 10
152.845533160356
 20
387.5724223200647
 30
0.0
 10
152.4434412318303
 20
388.3243283022724
 30
0.0
 10
152.2251971659717
 20
388.6880795310612
 30
0.0
 10
151.5199797031254
 20
389.7436087527624
 30
0.0
 10
150.9819268484993
 20
390.4011152468455
 30
0.0
 10
149.7705613573549
 20
391.6133092334246
 30
0.0
 10
149.1152661266784
 20
392.1503955683932
 30
0.0
 10
148.0603566716367
 20
392.856516156087
 30
0.0
 10
147.6966366543818
 20
393.0751802948082
 30
0.0
 10
146.9443629697734
 20
393.4782607227748
 30
0.0
 10
146.5550222634871
 20
393.6627163331661
 30
0.0
 10
145.375211021771
 20
394.1521185206638
 30
0.0
 10
144.5649448063105
 20
394.3985212517279
 30
0.0
 10
143.3139734899811
 20
394.6487910517899
 30
0.0
 10
142.8891613715695
 20
394.7123488823663
 30
0.0
 10
142.0357265893671
 20
394.7969049352008
 30
0.0
 10
141.6101529616329
 20
394.8178036555232
 30
0.0
 10
140.3367611815199
 20
394.8182909702692
 30
0.0
 10
139.4922410475134
 20
394.7362642526418
 30
0.0
 10
138.2322394132167
 20
394.4864252476239
 30
0.0
 10
137.8148373556462
 20
394.3818794116931
 30
0.0
 10
137.0005359432384
 20
394.1349119120295
 30
0.0
 10
136.6013987488918
 20
393.9920854900638
 30
0.0
 10
135.8188951631088
 20
393.6682913759334
 30
0.0
 10
135.4355287725794
 20
393.4873238113843
 30
0.0
 10
134.6847668833265
 20
393.0866720107065
 30
0.0
 10
134.3154356903399
 20
392.8655937406849
 30
0.0
 10
133.2508351381031
 20
392.1545734061601
 30
0.0
 10
132.5967845247534
 20
391.6176698951896
 30
0.0
 10
131.6971701407003
 20
390.7197590153558
 30
0.0
 10
131.4109741589744
 20
390.4049177972802
 30
0.0
 10
130.8668175075644
 20
389.7430587706326
 30
0.0
 10
130.6123348689225
 20
389.4001347056156
 30
0.0
 10
129.9046867643017
 20
388.3425995311459
 30
0.0
 10
129.504629775515
 20
387.5968827248008
 30
0.0
 10
129.0135972064361
 20
386.4161155991054
 30
0.0
 10
128.8678152656263
 20
386.0101653610233
 30
0.0
 10
128.6194541151713
 20
385.1938746323422
 30
0.0
 10
128.5160371968416
 20
384.7820049904635
 30
0.0
 10
128.2668240621414
 20
383.5354329475287
 30
0.0
 10
128.1814579968436
 20
382.6885071108946
 30
0.0
 10
128.1799797414928
 20
380.9697893637405
 30
0.0
 10
128.2636258065494
 20
380.1244743083334
 30
0.0
 10
128.5107165507767
 20
378.876719903424
 30
0.0
 10
128.6135009699545
 20
378.4641960645461
 30
0.0
 10
128.8608898980174
 20
377.6460900984707
 30
0.0
 10
129.0058991737754
 20
377.2402904081679
 30
0.0
 10
129.4942746613991
 20
376.0601811965574
 30
0.0
 10
129.8929259679506
 20
375.3135197950944
 30
0.0
 10
130.5999529705976
 20
374.2530484559801
 30
0.0
 10
130.855360108472
 20
373.9078697746292
 30
0.0
 10
131.3970643826673
 20
373.2469243988479
 30
0.0
 10
131.6822113572948
 20
372.932158226396
 30
0.0
 10
132.5793994806644
 20
372.0335919804492
 30
0.0
 10
133.2327788252821
 20
371.4950778726839
 30
0.0
 10
134.2986554065984
 20
370.7807483051328
 30
0.0
 10
134.6664359006035
 20
370.5598770249168
 30
0.0
 10
135.4152142273878
 20
370.1586607826627
 30
0.0
 10
135.7978448563512
 20
369.9771959070266
 30
0.0
 10
136.5794476853994
 20
369.6521341612175
 30
0.0
 10
136.9784195699409
 20
369.5085366821636
 30
0.0
 10
137.7930362408195
 20
369.259902152948
 30
0.0
 10
138.2107345440287
 20
369.1545285032318
 30
0.0
 10
139.4707184500925
 20
368.9024828810813
 30
0.0
 10
140.3206659555781
 20
368.8179670457091
 30
0.0
 10
141.1807140607425
 20
368.8179670457091
 30
0.0
  0
LINE
  5
C5
330
1F
100
AcDbEntity
  8
0
  6
Continuous
 62
     7
370
    25
100
AcDbLine
 10
171.1807140607
 20
471.2606861457
 30
0.0
 11
111.1807140607
 21
471.2606861457
 31
0.0
  0
LINE
  5
C6
330
1F
100
AcDbEntity
  8
0
  6
Continuous
 62
     7
370
    25
100
AcDbLine
 10
221.1807140607
 20
493.3995387869
 30
0.0
 11
61.1807140607
 21
493.3995387869
 31
0.0
  0
LINE
  5
C7
330
1F
100
AcDbEntity
  8
0
  6
Continuous
 62
     7
370
    25
100
AcDbLine
 10
61.1807140607
 20
493.3995387869
 30
0.0
 11
61.1807140607
 21
478.3995387869
 31
0.0
  0
LINE
  5
C8
330
1F
100
AcDbEntity
  8
0
  6
Continuous
 62
     7
370
    25
100
AcDbLine
 10
221.1807140607
 20
493.3995387869
 30
0.0
 11
221.1807140607
 21
478.3995387869
 31
0.0
  0
INSERT
  5
D4
330
1F
100
AcDbEntity
  8
FORMAT
100
AcDbBlockReference
  2
SW_CENTERMARKSYMBOL_0
 10
141.1807140607
 20
381.8179670457
 30
0.0
  0
LINE
  5
D5
330
1F
100
AcDbEntity
  8
0
  6
Continuous
 62
     7
370
    25
100
AcDbLine
 10
-86.7524923131
 20
187.2384285714
 30
0.0
 11
-86.7524923131
 21
171.985521551
 31
0.0
  0
LINE
  5
D6
330
1F
100
AcDbEntity
  8
0
  6
Continuous
 62
     7
370
    25
100
AcDbLine
 10
-72.7524923131
 20
171.9916861472
 30
0.0
 11
-72.7524923131
 21
187.2384285714
 31
0.0
  0
LINE
  5
D7
330
1F
100
AcDbEntity
  8
0
  6
Continuous
 62
     7
370
    25
100
AcDbLine
 10
-95.7524923131
 20
220.2384285714
 30
0.0
 11
-95.7524923131
 21
170.909740886
 31
0.0
  0
LINE
  5
D8
330
1F
100
AcDbEntity
  8
0
  6
Continuous
 62
     7
370
    25
100
AcDbLine
 10
-63.7524923131
 20
170.917865208
 30
0.0
 11
-63.7524923131
 21
220.2384285714
 31
0.0
  0
LINE
  5
D9
330
1F
100
AcDbEntity
  8
0
  6
Continuous
 62
     7
370
    25
100
AcDbLine
 10
-191.3340640543
 20
66.2384285714
 30
0.0
 11
-176.3340640543
 21
66.2384285714
 31
0.0
  0
LINE
  5
DA
330
1F
100
AcDbEntity
  8
0
  6
Continuous
 62
     7
370
    25
100
AcDbLine
 10
-191.3340640543
 20
73.2384285714
 30
0.0
 11
-191.3340640543
 21
66.2384285714
 31
0.0
  0
LINE
  5
DB
330
1F
100
AcDbEntity
  8
0
  6
Continuous
 62
     7
370
    25
100
AcDbLine
 10
-169.7302673467
 20
73.2384285714
 30
0.0
 11
-191.3340640543
 21
73.2384285714
 31
0.0
  0
ARC
  5
DC
330
1F
100
AcDbEntity
  8
0
  6
Continuous
 62
     7
370
    25
100
AcDbCircle
 10
-79.7524923131
 20
75.2384285714
 30
0.0
 40
89.99999999999999
100
AcDbArc
 50
181.2733443614
 51
178.7266556386
  0
LINE
  5
DD
330
1F
100
AcDbEntity
  8
0
  6
Continuous
 62
     7
370
    25
100
AcDbLine
 10
-191.3340640543
 20
77.2384285714
 30
0.0
 11
-169.7302673467
 21
77.2384285714
 31
0.0
  0
LINE
  5
DE
330
1F
100
AcDbEntity
  8
0
  6
Continuous
 62
     7
370
    25
100
AcDbLine
 10
-191.3340640543
 20
84.2384285714
 30
0.0
 11
-191.3340640543
 21
77.2384285714
 31
0.0
  0
LINE
  5
DF
330
1F
100
AcDbEntity
  8
0
  6
Continuous
 62
     7
370
    25
100
AcDbLine
 10
-176.3340640543
 20
84.2384285714
 30
0.0
 11
-191.3340640543
 21
84.2384285714
 31
0.0
  0
ARC
  5
E0
330
1F
100
AcDbEntity
  8
0
  6
Continuous
 62
     7
370
    25
100
AcDbCircle
 10
-79.7524923131
 20
75.2384285714
 30
0.0
 40
96.99999999999999
100
AcDbArc
 50
185.3237604809
 51
174.6762395191
  0
LINE
  5
E1
330
1F
100
AcDbEntity
  8
0
  6
Continuous
 62
     7
370
    25
100
AcDbLine
 10
-72.7524923131
 20
187.2384285714
 30
0.0
 11
-86.7524923131
 21
187.2384285714
 31
0.0
  0
LINE
  5
E2
330
1F
100
AcDbEntity
  8
0
  6
Continuous
 62
     7
370
    25
100
AcDbLine
 10
-95.7524923131
 20
220.2384285714
 30
0.0
 11
-63.7524923131
 21
220.2384285714
 31
0.0
  0
LINE
  5
E3
330
1F
100
AcDbEntity
  8
0
  6
Continuous
 62
     7
370
    25
100
AcDbLine
 10
221.1807140607
 20
-104.90865523
 30
0.0
 11
61.1807140607
 21
-104.90865523
 31
0.0
  0
CIRCLE
  5
E4
330
1F
100
AcDbEntity
  8
0
  6
Continuous
 62
     7
370
    25
100
AcDbCircle
 10
141.1807140607
 20
-201.90865523
 30
0.0
 40
16.00000000000003
  0
CIRCLE
  5
E5
330
1F
100
AcDbEntity
  8
0
  6
Continuous
 62
     7
370
    25
100
AcDbCircle
 10
141.1807140607
 20
-201.90865523
 30
0.0
 40
13.00000000000003
  0
CIRCLE
  5
E6
330
1F
100
AcDbEntity
  8
0
  6
Continuous
 62
     7
370
    25
100
AcDbCircle
 10
71.1807140607
 20
-201.90865523
 30
0.0
 40
4.599999999999994
  0
CIRCLE
  5
E7
330
1F
100
AcDbEntity
  8
0
  6
Continuous
 62
     7
370
    25
100
AcDbCircle
 10
71.1807140607
 20
-201.90865523
 30
0.0
 40
7.0
  0
CIRCLE
  5
E8
330
1F
100
AcDbEntity
  8
0
  6
Continuous
 62
     7
370
    25
100
AcDbCircle
 10
211.1807140607
 20
-201.90865523
 30
0.0
 40
4.599999999999994
  0
CIRCLE
  5
E9
330
1F
100
AcDbEntity
  8
0
  6
Continuous
 62
     7
370
    25
100
AcDbCircle
 10
211.1807140607
 20
-201.90865523
 30
0.0
 40
7.0
  0
CIRCLE
  5
EA
330
1F
100
AcDbEntity
  8
0
  6
Continuous
 62
     7
370
    25
100
AcDbCircle
 10
71.1807140607
 20
-201.90865523
 30
0.0
 40
1.5
  0
CIRCLE
  5
EB
330
1F
100
AcDbEntity
  8
0
  6
Continuous
 62
     7
370
    25
100
AcDbCircle
 10
71.1807140607
 20
-201.90865523
 30
0.0
 40
2.0
  0
CIRCLE
  5
EC
330
1F
100
AcDbEntity
  8
0
  6
Continuous
 62
     7
370
    25
100
AcDbCircle
 10
211.1807140607
 20
-201.90865523
 30
0.0
 40
1.5
  0
CIRCLE
  5
ED
330
1F
100
AcDbEntity
  8
0
  6
Continuous
 62
     7
370
    25
100
AcDbCircle
 10
211.1807140607
 20
-201.90865523
 30
0.0
 40
2.0
  0
LINE
  5
EE
330
1F
100
AcDbEntity
  8
0
  6
Continuous
 62
     7
370
    25
100
AcDbLine
 10
221.1807140607
 20
-104.90865523
 30
0.0
 11
221.1807140607
 21
-298.4902269712
 31
0.0
  0
LINE
  5
EF
330
1F
100
AcDbEntity
  8
0
  6
Continuous
 62
     7
370
    25
100
AcDbLine
 10
221.1807140607
 20
-298.4902269712
 30
0.0
 11
61.1807140607
 21
-298.4902269712
 31
0.0
  0
LINE
  5
F0
330
1F
100
AcDbEntity
  8
0
  6
Continuous
 62
     7
370
    25
100
AcDbLine
 10
61.1807140607
 20
-104.90865523
 30
0.0
 11
61.1807140607
 21
-298.4902269712
 31
0.0
  0
LINE
  5
F1
330
1F
100
AcDbEntity
  8
0
  6
Continuous
 62
     7
370
    25
100
AcDbLine
 10
221.1807140607
 20
-313.4902269712
 30
0.0
 11
61.1807140607
 21
-313.4902269712
 31
0.0
  0
LINE
  5
F2
330
1F
100
AcDbEntity
  8
0
  6
Continuous
 62
     7
370
    25
100
AcDbLine
 10
61.1807140607
 20
-298.4902269712
 30
0.0
 11
61.1807140607
 21
-313.4902269712
 31
0.0
  0
LINE
  5
F3
330
1F
100
AcDbEntity
  8
0
  6
Continuous
 62
     7
370
    25
100
AcDbLine
 10
221.1807140607
 20
-298.4902269712
 30
0.0
 11
221.1807140607
 21
-313.4902269712
 31
0.0
  0
INSERT
  5
FF
330
1F
100
AcDbEntity
  8
FORMAT
100
AcDbBlockReference
  2
SW_CENTERMARKSYMBOL_1
 10
141.1807140607
 20
-201.90865523
 30
0.0
  0
INSERT
  5
10B
330
1F
100
AcDbEntity
  8
FORMAT
100
AcDbBlockReference
  2
SW_CENTERMARKSYMBOL_2
 10
71.1807140607
 20
-201.90865523
 30
0.0
  0
INSERT
  5
117
330
1F
100
AcDbEntity
  8
FORMAT
100
AcDbBlockReference
  2
SW_CENTERMARKSYMBOL_3
 10
211.1807140607
 20
-201.90865523
 30
0.0
  0
LINE
  5
118
330
1F
100
AcDbEntity
  8
0
  6
Continuous
 62
     7
370
    25
100
AcDbLine
 10
488.99847773
 20
-256.171776522
 30
0.0
 11
524.3538167894
 21
-235.7615737265
 31
0.0
  0
LINE
  5
119
330
1F
100
AcDbEntity
  8
0
  6
Continuous
 62
     7
370
    25
100
AcDbLine
 10
411.2167317995
 20
-301.0742226723
 30
0.0
 11
446.5720708588
 21
-280.6640198767
 31
0.0
  0
LINE
  5
11A
330
1F
100
AcDbEntity
  8
0
  6
Continuous
 62
     7
370
    25
100
AcDbLine
 10
427.3616997237
 20
-67.7480944246
 30
0.0
 11
314.2246147338
 21
-133.0607433704
 31
0.0
  0
LINE
  5
11B
330
1F
100
AcDbEntity
  8
0
  6
Continuous
 62
     7
370
    25
100
AcDbLine
 10
461.7866904446
 20
-64.3843037035
 30
0.0
 11
461.7866904446
 21
-66.1119471155
 31
0.0
  0
LINE
  5
11C
330
1F
100
AcDbEntity
  8
0
  6
Continuous
 62
     7
370
    25
100
AcDbLine
 10
475.7866904446
 20
-72.5093912641
 30
0.0
 11
475.7866904446
 21
-64.3843037035
 31
0.0
  0
LINE
  5
11D
330
1F
100
AcDbEntity
  8
0
  6
Continuous
 62
     7
370
    25
100
AcDbLine
 10
403.2892157616
 20
-66.012740825
 30
0.0
 11
403.2892157616
 21
-81.6448436153
 31
0.0
  0
LINE
  5
11E
330
1F
100
AcDbEntity
  8
0
  6
Continuous
 62
     7
370
    25
100
AcDbLine
 10
396.9576722229
 20
-113.5556512328
 30
0.0
 11
407.5642739407
 21
-119.6787120715
 31
0.0
  0
LINE
  5
11F
330
1F
100
AcDbEntity
  8
0
  6
Continuous
 62
     7
370
    25
100
AcDbLine
 10
396.9576722229
 20
-107.8398655496
 30
0.0
 11
396.9576722229
 21
-113.5556512328
 31
0.0
  0
LINE
  5
120
330
1F
100
AcDbEntity
  8
0
  6
Continuous
 62
     7
370
    25
100
AcDbLine
 10
412.2338633742
 20
-116.6586229887
 30
0.0
 11
396.9576722229
 21
-107.8398655496
 31
0.0
  0
LWPOLYLINE
  5
121
330
1F
100
AcDbEntity
  8
0
  6
Continuous
 62
     7
370
    25
100
AcDbPolyline
 90
      120
 70
   128
 43
0.0
 10
412.2338633742
 20
-113.3924597412
 10
412.3953873507
 20
-109.6379210875
 10
412.7312991998
 20
-105.9991152492
 10
413.2406758714
 20
-102.4860412793
 10
413.9221176523
 20
-99.1083527329
 10
414.7737520128
 20
-95.8753311404
 10
415.7932387517
 20
-92.7958605026
 10
416.9777764276
 20
-89.8784028787
 10
418.3241100563
 20
-87.130975133
 10
419.8285400557
 20
-84.5611269061
 10
421.4869324115
 20
-82.1759198686
 10
423.2947300372
 20
-79.9819083168
 10
425.2469652964
 20
-77.9851211621
 10
427.3382736535
 20
-76.191045364
 10
429.5629084145
 20
-74.6046108527
 10
431.9147565189
 20
-73.2301769823
 10
434.3873553371
 20
-72.0715205514
 10
436.9739104295
 20
-71.1318254252
 10
439.6673142168
 20
-70.4136737862
 10
442.4601655107
 20
-69.9190390393
 10
445.3447898515
 20
-69.6492803882
 10
448.3132605973
 20
-69.6051391011
 10
451.3574207049
 20
-69.7867364737
 10
454.4689051447
 20
-70.1935734955
 10
457.6391638872
 20
-70.8245322216
 10
460.859485397
 20
-71.6778788442
 10
464.1210205719
 20
-72.7512684571
 10
467.4148070587
 20
-74.0417514995
 10
470.731793881
 20
-75.5457818606
 10
474.0628663104
 20
-77.2592266243
 10
477.3988709127
 20
-79.177377426
 10
480.7306407007
 20
-81.2949633903
 10
484.049020324
 20
-83.6061656154
 10
487.3448912268
 20
-86.1046331624
 10
490.609196705
 20
-88.7835005072
 10
493.832966793
 20
-91.635406406
 10
497.0073429121
 20
-94.6525141236
 10
500.1236022129
 20
-97.8265329675
 10
503.173181545
 20
-101.1487410701
 10
506.1477009875
 20
-104.6100093557
 10
509.0389868759
 20
-108.2008266255
 10
511.8390942631
 20
-111.911325694
 10
514.5403287504
 20
-115.731310503
 10
517.1352676316
 20
-119.6502841387
 10
519.6167802897
 20
-123.6574776768
 10
521.9780477906
 20
-127.7418797739
 10
524.2125816214
 20
-131.8922669257
 10
526.3142415199
 20
-136.097234308
 10
528.2772523473
 20
-140.3452271159
 10
530.0962199577
 20
-144.624572315
 10
531.7661460209
 20
-148.9235107182
 10
533.2824417569
 20
-153.230229298
 10
534.6409405457
 20
-157.532893648
 10
535.8379093765
 20
-161.8196805024
 10
536.8700591058
 20
-166.078810225
 10
537.7345534953
 20
-170.2985791784
 10
538.4290170063
 20
-174.4673918847
 10
538.9515413264
 20
-178.5737928881
 10
539.3006906141
 20
-182.6064982336
 10
539.4755054443
 20
-186.5544264742
 10
539.4755054443
 20
-190.4067291211
 10
539.3006906141
 20
-194.1528204549
 10
538.9515413264
 20
-197.7824066134
 10
538.4290170063
 20
-201.2855138783
 10
537.7345534953
 20
-204.6525160819
 10
536.8700591058
 20
-207.8741610588
 10
535.8379093765
 20
-210.9415960699
 10
534.6409405457
 20
-213.8463921288
 10
533.2824417569
 20
-216.5805671635
 10
531.7661460209
 20
-219.1366079507
 10
530.0962199577
 20
-221.5074907611
 10
528.2772523473
 20
-223.6867006599
 10
526.3142415199
 20
-225.6682494091
 10
524.2125816214
 20
-227.4466919226
 10
521.9780477906
 20
-229.0171412289
 10
519.6167802897
 20
-230.3752818996
 10
517.1352676316
 20
-231.5173819079
 10
514.5403287504
 20
-232.4403028841
 10
511.8390942631
 20
-233.1415087391
 10
509.0389868759
 20
-233.6190726334
 10
506.1477009874
 20
-233.8716822721
 10
503.173181545
 20
-233.8986435107
 10
500.1236022129
 20
-233.6998822624
 10
497.007342912
 20
-233.2759447023
 10
493.832966793
 20
-232.6279957657
 10
490.609196705
 20
-231.7578159477
 10
487.3448912268
 20
-230.6677964103
 10
484.049020324
 20
-229.3609324117
 10
480.7306407007
 20
-227.8408150758
 10
477.3988709127
 20
-226.1116215239
 10
474.0628663104
 20
-224.1781033967
 10
470.731793881
 20
-222.0455737973
 10
467.4148070587
 20
-219.7198926911
 10
464.1210205719
 20
-217.2074508034
 10
460.859485397
 20
-214.5151520583
 10
457.6391638872
 20
-211.6503946077
 10
454.4689051447
 20
-208.6210505015
 10
451.3574207049
 20
-205.4354440564
 10
448.3132605973
 20
-202.1023289816
 10
445.3447898515
 20
-198.630864324
 10
442.4601655107
 20
-195.030589301
 10
439.6673142168
 20
-191.3113970868
 10
436.9739104295
 20
-187.4835076277
 10
434.3873553371
 20
-183.5574395585
 10
431.9147565189
 20
-179.5439812982
 10
429.5629084145
 20
-175.4541614051
 10
427.3382736535
 20
-171.299218271
 10
425.2469652964
 20
-167.0905692395
 10
423.2947300372
 20
-162.8397792322
 10
421.4869324115
 20
-158.55852897
 10
419.8285400557
 20
-154.2585828748
 10
418.3241100563
 20
-149.9517567432
 10
416.9777764276
 20
-145.6498852771
 10
415.7932387517
 20
-141.3647895636
 10
414.7737520128
 20
-137.1082445917
 10
413.9221176523
 20
-132.8919468963
 10
413.2406758714
 20
-128.7274824167
 10
412.7312991998
 20
-124.6262946601
 10
412.3953873507
 20
-120.5996532561
 10
412.2338633742
 20
-116.6586229887
  0
LINE
  5
122
330
1F
100
AcDbEntity
  8
0
  6
Continuous
 62
     7
370
    25
100
AcDbLine
 10
396.9576722229
 20
-104.5737023021
 30
0.0
 11
412.2338633742
 21
-113.3924597412
 31
0.0
  0
LINE
  5
123
330
1F
100
AcDbEntity
  8
0
  6
Continuous
 62
     7
370
    25
100
AcDbLine
 10
396.9576722229
 20
-98.8579166189
 30
0.0
 11
396.9576722229
 21
-104.5737023021
 31
0.0
  0
LINE
  5
124
330
1F
100
AcDbEntity
  8
0
  6
Continuous
 62
     7
370
    25
100
AcDbLine
 10
407.5642739407
 20
-104.9809774575
 30
0.0
 11
396.9576722229
 21
-98.8579166189
 31
0.0
  0
LWPOLYLINE
  5
125
330
1F
100
AcDbEntity
  8
0
  6
Continuous
 62
     7
370
    25
100
AcDbPolyline
 90
      122
 70
   128
 43
0.0
 10
407.5642739407
 20
-119.6787120715
 10
407.9715167072
 20
-123.8767993905
 10
408.5511055962
 20
-128.1456620399
 10
409.3015691769
 20
-132.4744624493
 10
410.2210022107
 20
-136.8522108813
 10
411.307070488
 20
-141.2677933319
 10
412.557016754
 20
-145.7099997458
 10
413.9676677092
 20
-150.1675524764
 10
415.5354420649
 20
-154.6291349164
 10
417.2563596356
 20
-159.0834202282
 10
419.1260514438
 20
-163.5191000999
 10
421.1397708113
 20
-167.9249134539
 10
423.2924054104
 20
-172.2896750364
 10
425.5784902421
 20
-176.6023038136
 10
427.9922215112
 20
-180.8518511038
 10
430.52747136
 20
-185.0275283734
 10
433.1778034257
 20
-189.1187346264
 10
435.9364891806
 20
-193.1150833173
 10
438.7965250142
 20
-197.00642872
 10
441.7506500136
 20
-200.7828916858
 10
444.7913643973
 20
-204.4348847233
 10
447.9109485548
 20
-207.9531363391
 10
451.1014826452
 20
-211.3287145757
 10
454.3548667036
 20
-214.5530496877
 10
457.6628412046
 20
-217.6179558976
 10
461.0170080317
 20
-220.5156521781
 10
464.4088517974
 20
-223.238782006
 10
467.829761462
 20
-225.7804320383
 10
471.2710521947
 20
-228.1341496638
 10
474.7239874226
 20
-230.2939593844
 10
478.1798010099
 20
-232.2543779854
 10
481.6297195136
 20
-234.0104284564
 10
485.064984457
 20
-235.557652626
 10
488.4768745648
 20
-236.8921224805
 10
491.8567279047
 20
-238.0104501361
 10
495.1959638777
 20
-238.9097964397
 10
498.4861050021
 20
-239.5878781767
 10
501.7187984356
 20
-240.0429738679
 10
504.8858371813
 20
-240.2739281396
 10
507.979180923
 20
-240.2801546569
 10
510.9909764377
 20
-240.0616376123
 10
513.9135775326
 20
-239.6189317656
 10
516.7395644575
 20
-238.9531610358
 10
519.461762741
 20
-238.0660156477
 10
522.0732614053
 20
-236.9597478406
 10
524.5674305109
 20
-235.6371661508
 10
526.9379379887
 20
-234.101628281
 10
529.1787657154
 20
-232.3570325765
 10
531.2842247921
 20
-230.4078081276
 10
533.2489699867
 20
-228.2589035258
 10
535.0680133045
 20
-225.9157743004
 10
536.7367366513
 20
-223.3843690681
 10
538.2509035576
 20
-220.6711144312
 10
539.6066699336
 20
-217.7828986621
 10
540.8005938289
 20
-214.7270542154
 10
541.8296441706
 20
-211.5113391128
 10
542.6912084583
 20
-208.1439172476
 10
543.3830993965
 20
-204.6333376584
 10
543.9035604478
 20
-200.9885128254
 10
544.2512702923
 20
-197.2186960437
 10
544.4253461821
 20
-193.3334579316
 10
544.4253461821
 20
-189.342662133
 10
544.2512702923
 20
-185.2564402766
 10
543.9035604478
 20
-181.0851662537
 10
543.3830993965
 20
-176.8394298816
 10
542.6912084583
 20
-172.530010019
 10
541.8296441706
 20
-168.167847201
 10
540.8005938289
 20
-163.7640158636
 10
539.6066699335
 20
-159.3296962289
 10
538.2509035576
 20
-154.8761459212
 10
536.7367366513
 20
-150.4146713863
 10
535.0680133045
 20
-145.956599188
 10
533.2489699867
 20
-141.5132472523
 10
531.2842247921
 20
-137.0958961341
 10
529.1787657154
 20
-132.7157603787
 10
526.9379379887
 20
-128.3839600511
 10
524.5674305109
 20
-124.1114925047
 10
522.0732614053
 20
-119.9092044618
 10
519.461762741
 20
-115.7877644767
 10
516.7395644575
 20
-111.7576358506
 10
513.9135775326
 20
-107.8290500684
 10
510.9909764377
 20
-104.0119808228
 10
507.979180923
 20
-100.3161186943
 10
504.8858371813
 20
-96.7508465489
 10
501.7187984356
 20
-93.3252157175
 10
498.4861050021
 20
-90.0479230164
 10
495.1959638777
 20
-86.9272886692
 10
491.8567279047
 20
-83.9712351828
 10
488.4768745648
 20
-81.1872672349
 10
485.064984457
 20
-78.582452621
 10
481.6297195136
 20
-76.1634043114
 10
478.1798010099
 20
-73.9362636625
 10
474.7239874226
 20
-71.9066848252
 10
471.2710521947
 20
-70.0798203904
 10
467.829761462
 20
-68.4603083084
 10
464.4088517974
 20
-67.0522601137
 10
461.0170080317
 20
-65.8592504872
 10
457.6628412046
 20
-64.8843081806
 10
454.3548667036
 20
-64.1299083278
 10
451.1014826452
 20
-63.5979661605
 10
447.9109485548
 20
-63.2898321464
 10
444.7913643973
 20
-63.2062885603
 10
441.7506500136
 20
-63.3475474985
 10
438.7965250142
 20
-63.71325034
 10
435.9364891806
 20
-64.302468657
 10
433.1778034257
 20
-65.1137065723
 10
430.52747136
 20
-66.1449045563
 10
427.9922215112
 20
-67.3934446565
 10
425.5784902421
 20
-68.8561571428
 10
423.2924054104
 20
-70.5293285556
 10
421.1397708113
 20
-72.4087111329
 10
419.1260514438
 20
-74.4895335939
 10
417.2563596356
 20
-76.7665132531
 10
415.5354420649
 20
-79.2338694308
 10
413.9676677092
 20
-81.8853381291
 10
412.557016754
 20
-84.7141879347
 10
411.307070488
 20
-87.7132371083
 10
410.2210022107
 20
-90.8748718169
 10
409.3015691769
 20
-94.191065464
 10
408.5511055962
 20
-97.6533990664
 10
407.9715167072
 20
-101.2530826285
 10
407.5642739407
 20
-104.9809774575
  0
LINE
  5
126
330
1F
100
AcDbEntity
  8
0
  6
Continuous
 62
     7
370
    25
100
AcDbLine
 10
407.5642739407
 20
-119.6787120715
 30
0.0
 11
294.4271889508
 21
-184.9913610173
 31
0.0
  0
LWPOLYLINE
  5
127
330
1F
100
AcDbEntity
  8
0
  6
Continuous
 62
     7
370
    25
100
AcDbPolyline
 90
       46
 70
   128
 43
0.0
 10
294.4271889508
 20
-184.9913610173
 10
294.8344317174
 20
-189.1894483363
 10
295.4140206064
 20
-193.4583109857
 10
296.164484187
 20
-197.7871113951
 10
297.0839172208
 20
-202.1648598271
 10
298.1699854981
 20
-206.5804422777
 10
299.4199317642
 20
-211.0226486917
 10
300.8305827194
 20
-215.4802014222
 10
302.3983570751
 20
-219.9417838622
 10
304.1192746458
 20
-224.3960691741
 10
305.988966454
 20
-228.8317490457
 10
308.0026858215
 20
-233.2375623997
 10
310.1553204205
 20
-237.6023239822
 10
312.4414052523
 20
-241.9149527594
 10
314.8551365214
 20
-246.1645000496
 10
317.3903863702
 20
-250.3401773193
 10
320.0407184358
 20
-254.4313835722
 10
322.7994041907
 20
-258.4277322631
 10
325.6594400243
 20
-262.3190776658
 10
328.6135650238
 20
-266.0955406316
 10
331.6542794074
 20
-269.7475336691
 10
334.7738635649
 20
-273.2657852849
 10
337.9643976553
 20
-276.6413635216
 10
341.2177817137
 20
-279.8656986335
 10
344.5257562148
 20
-282.9306048434
 10
347.8799230419
 20
-285.8283011239
 10
351.2717668075
 20
-288.5514309518
 10
354.6926764721
 20
-291.0930809842
 10
358.1339672049
 20
-293.4467986096
 10
361.5869024327
 20
-295.6066083302
 10
365.04271602
 20
-297.5670269313
 10
368.4926345238
 20
-299.3230774022
 10
371.9278994671
 20
-300.8703015718
 10
375.3397895749
 20
-302.2047714264
 10
378.7196429149
 20
-303.323099082
 10
382.0588788879
 20
-304.2224453855
 10
385.3490200122
 20
-304.9005271225
 10
388.5817134458
 20
-305.3556228137
 10
391.7487521915
 20
-305.5865770855
 10
394.8420959332
 20
-305.5928036028
 10
397.8538914478
 20
-305.3742865581
 10
400.7764925428
 20
-304.9315807114
 10
403.6024794676
 20
-304.2658099816
 10
406.3246777512
 20
-303.3786645935
 10
408.9361764155
 20
-302.2723967864
 10
411.2167317995
 20
-301.0742226723
  0
LWPOLYLINE
  5
128
330
1F
100
AcDbEntity
  8
0
  6
Continuous
 62
     7
370
    25
100
AcDbPolyline
 90
       12
 70
   128
 43
0.0
 10
314.2246147338
 20
-133.0607433704
 10
312.4414052523
 20
-134.1688060886
 10
310.1553204205
 20
-135.8419775015
 10
308.0026858215
 20
-137.7213600787
 10
305.988966454
 20
-139.8021825398
 10
304.1192746458
 20
-142.079162199
 10
302.3983570751
 20
-144.5465183766
 10
300.8305827194
 20
-147.1979870749
 10
299.4199317642
 20
-150.0268368805
 10
298.1699854981
 20
-153.0258860541
 10
297.0839172208
 20
-156.1875207627
 10
296.9628583107
 20
-156.5836939626
  0
LINE
  5
129
330
1F
100
AcDbEntity
  8
0
  6
Continuous
 62
     7
370
    25
100
AcDbLine
 10
329.8521162191
 20
-165.4378714516
 30
0.0
 11
372.2785230903
 21
-140.9456280969
 31
0.0
  0
LWPOLYLINE
  5
12A
330
1F
100
AcDbEntity
  8
0
  6
Continuous
 62
     7
370
    25
100
AcDbPolyline
 90
       53
 70
   128
 43
0.0
 10
460.5972825296
 20
-265.3215415077
 10
459.1006888309
 20
-268.0448941127
 10
457.4498583771
 20
-270.5878181676
 10
455.6489635582
 20
-272.9438865616
 10
453.7025560438
 20
-275.107144452
 10
451.6155552795
 20
-277.0721243149
 10
449.3932360533
 20
-278.8338597642
 10
447.0412151636
 20
-280.3878981032
 10
444.5654372231
 20
-281.7303115796
 10
441.9721596341
 20
-282.8577073116
 10
439.2679367735
 20
-283.7672358642
 10
436.4596034264
 20
-284.4565984504
 10
433.5542575121
 20
-284.9240527414
 10
430.559242144
 20
-285.1684172703
 10
427.4821270706
 20
-285.1890744183
 10
424.3306895432
 20
-284.9859719755
 10
421.1128946593
 20
-284.559623273
 10
417.8368752311
 20
-283.9111058853
 10
414.5109112307
 20
-283.042058907
 10
411.1434088622
 20
-281.95467881
 10
407.7428793159
 20
-280.6517138921
 10
404.3179172568
 20
-279.1364573304
 10
400.8771791016
 20
-277.4127388587
 10
397.4293611403
 20
-275.4849150874
 10
393.9831775569
 20
-273.3578584926
 10
390.5473384044
 20
-271.0369451014
 10
387.130527591
 20
-268.5280409038
 10
383.7413809316
 20
-265.8374870272
 10
380.3884643213
 20
-262.9720837091
 10
377.0802520857
 20
-259.9390731102
 10
373.8251055625
 20
-256.7461210099
 10
370.6312519682
 20
-253.4012974318
 10
367.5067636049
 20
-249.9130562466
 10
364.4595374573
 20
-246.2902138058
 10
361.497275234
 20
-242.541926659
 10
358.6274639016
 20
-238.6776684103
 10
355.8573567618
 20
-234.7072057755
 10
353.1939551188
 20
-230.640573896
 10
350.6439905845
 20
-226.4880509765
 10
348.213908064
 20
-222.2601323065
 10
345.9098494669
 20
-217.9675037348
 10
343.7376381837
 20
-213.6210146609
 10
341.7027643674
 20
-209.2316506141
 10
339.8103710578
 20
-204.810505488
 10
338.0652411825
 20
-200.3687535013
 10
336.471785468
 20
-195.9176209553
 10
335.0340312924
 20
-191.4683578603
 10
333.7556125059
 20
-187.0322095018
 10
332.6397602468
 20
-182.6203880182
 10
331.6892947747
 20
-178.2440440631
 10
330.9066183425
 20
-173.9142386226
 10
330.2937091251
 20
-169.6419150588
 10
329.8521162191
 20
-165.4378714516
  0
LINE
  5
12B
330
1F
100
AcDbEntity
  8
0
  6
Continuous
 62
     7
370
    25
100
AcDbLine
 10
468.6984760381
 20
-260.644822042
 30
0.0
 11
460.5972825296
 21
-265.3215415077
 31
0.0
  0
LWPOLYLINE
  5
12C
330
1F
100
AcDbEntity
  8
0
  6
Continuous
 62
     7
370
    25
100
AcDbPolyline
 90
       46
 70
   128
 43
0.0
 10
372.2785230903
 20
-140.9456280969
 10
372.7201159963
 20
-145.1496717042
 10
373.3330252137
 20
-149.4219952679
 10
374.1157016459
 20
-153.7518007084
 10
375.066167118
 20
-158.1281446635
 10
376.1820193771
 20
-162.5399661471
 10
377.4604381636
 20
-166.9761145056
 10
378.8981923392
 20
-171.4253776006
 10
380.4916480537
 20
-175.8765101466
 10
382.236777929
 20
-180.3182621334
 10
384.1291712386
 20
-184.7394072594
 10
386.1640450549
 20
-189.1287713062
 10
388.3362563381
 20
-193.4752603801
 10
390.6403149352
 20
-197.7678889518
 10
393.0703974557
 20
-201.9958076218
 10
395.62036199
 20
-206.1483305414
 10
398.2837636329
 20
-210.2149624208
 10
401.0538707728
 20
-214.1854250557
 10
403.9236821052
 20
-218.0496833043
 10
406.8859443285
 20
-221.7979704512
 10
409.9331704761
 20
-225.4208128919
 10
413.0576588394
 20
-228.9090540771
 10
416.2515124337
 20
-232.2538776553
 10
419.5066589569
 20
-235.4468297555
 10
422.8148711925
 20
-238.4798403544
 10
426.1677878028
 20
-241.3452436725
 10
429.5569344622
 20
-244.0357975491
 10
432.9737452756
 20
-246.5447017467
 10
436.4095844281
 20
-248.8656151379
 10
439.8557680115
 20
-250.9926717327
 10
443.3035859728
 20
-252.920495504
 10
446.744324128
 20
-254.6442139757
 10
450.1692861871
 20
-256.1594705374
 10
453.5698157334
 20
-257.4624354553
 10
456.9373181019
 20
-258.5498155523
 10
460.2632821023
 20
-259.4188625306
 10
463.5393015305
 20
-260.0673799183
 10
466.7570964144
 20
-260.4937286208
 10
469.9085339418
 20
-260.6968310636
 10
472.9856490152
 20
-260.6761739156
 10
475.9806643832
 20
-260.4318093867
 10
478.8860102976
 20
-259.9643550957
 10
481.6943436447
 20
-259.2749925095
 10
484.3985665053
 20
-258.3654639569
 10
486.9918440943
 20
-257.2380682249
 10
488.99847773
 20
-256.171776522
  0
SPLINE
  5
12D
330
1F
100
AcDbEntity
  8
0
  6
Continuous
 62
     7
370
    25
100
AcDbSpline
210
0.0
220
0.0
230
1.0
 70
     8
 71
     3
 72
    25
 73
    21
 74
     0
 42
0.00000001
 43
0.00000001
 40
0.0
 40
0.0
 40
0.0
 40
0.0
 40
0.0583092877621402
 40
0.1166203335902872
 40
0.1749106793424699
 40
0.2332035057477621
 40
0.2918800695102056
 40
0.3505560231330875
 40
0.4094945144989474
 40
0.4684301701654238
 40
0.5269538742008287
 40
0.5854769495053113
 40
0.643562762846807
 40
0.7016509805904626
 40
0.7599446054384214
 40
0.8182399775124363
 40
0.8770689040695456
 40
0.9358961361249841
 40
0.9947638534895031
 40
1.0
 40
1.0
 40
1.0
 40
1.0
 10
428.481603917013
 20
-116.9998204073296
 30
0.0
 10
428.9698991029949
 20
-116.684135570184
 30
0.0
 10
429.9465041974016
 20
-116.0527563777732
 30
0.0
 10
431.0472917774927
 20
-114.893485903871
 30
0.0
 10
431.8300994682563
 20
-113.6204401582913
 30
0.0
 10
432.2649922708035
 20
-112.2619296040414
 30
0.0
 10
432.3300262230256
 20
-110.8669313257491
 30
0.0
 10
432.0332653163879
 20
-109.4819968837497
 30
0.0
 10
431.3660171605291
 20
-108.1619595788421
 30
0.0
 10
430.3612242117438
 20
-106.9521119562908
 30
0.0
 10
429.0369201757894
 20
-105.9016784682094
 30
0.0
 10
427.4496315134994
 20
-105.0363618353839
 30
0.0
 10
425.6337038755478
 20
-104.3859860759633
 30
0.0
 10
423.6488172424923
 20
-103.9519827123706
 30
0.0
 10
421.5389850720911
 20
-103.7480113489941
 30
0.0
 10
419.3612369943237
 20
-103.7624353044877
 30
0.0
 10
417.1690965782489
 20
-103.9905203190213
 30
0.0
 10
415.0483493568547
 20
-104.4282706614941
 30
0.0
 10
413.6022525008904
 20
-104.8190286747498
 30
0.0
 10
412.9396607129609
 20
-105.0936709157254
 30
0.0
 10
412.8855387385817
 20
-105.1161043062387
 30
0.0
  0
SPLINE
  5
12E
330
1F
100
AcDbEntity
  8
0
  6
Continuous
 62
     7
370
    25
100
AcDbSpline
210
0.0
220
0.0
230
1.0
 70
     8
 71
     3
 72
    15
 73
    11
 74
     0
 42
0.00000001
 43
0.00000001
 40
0.0
 40
0.0
 40
0.0
 40
0.0
 40
0.0853241196918023
 40
0.208328756536706
 40
0.3313386107870314
 40
0.4554321196484317
 40
0.5795246161242856
 40
0.7042128115386022
 40
0.8288948874896467
 40
1.0
 40
1.0
 40
1.0
 40
1.0
 10
412.2685960504777
 20
-117.2501272860586
 30
0.0
 10
412.691845430872
 20
-117.4191970986545
 30
0.0
 10
413.7252579927708
 20
-117.8320006992451
 30
0.0
 10
415.5666717115681
 20
-118.3141069047703
 30
0.0
 10
417.6972807802159
 20
-118.6972766557988
 30
0.0
 10
419.885633829582
 20
-118.8730601860111
 30
0.0
 10
422.0672195169924
 20
-118.8397834806545
 30
0.0
 10
424.1684004831397
 20
-118.5690287714053
 30
0.0
 10
426.4054158899471
 20
-118.0283258310766
 30
0.0
 10
427.7207295457193
 20
-117.3767435989981
 30
0.0
 10
428.481603917013
 20
-116.9998204073296
 30
0.0
  0
LINE
  5
12F
330
1F
100
AcDbEntity
  8
0
  6
Continuous
 62
     7
370
    25
100
AcDbLine
 10
412.2338633742
 20
-113.3924597412
 30
0.0
 11
409.4049765131
 21
-115.0255413649
 31
0.0
  0
LWPOLYLINE
  5
130
330
1F
100
AcDbEntity
  8
0
  6
Continuous
 62
     7
370
    25
100
AcDbPolyline
 90
        3
 70
   128
 43
0.0
 10
369.8020201662
 20
-148.1231551734
 10
370.9119353341
 20
-148.9188145612
 10
373.5877711063
 20
-150.9316053046
  0
LWPOLYLINE
  5
131
330
1F
100
AcDbEntity
  8
0
  6
Continuous
 62
     7
370
    25
100
AcDbPolyline
 90
       12
 70
   128
 43
0.0
 10
425.4273522073
 20
-240.7301234711
 10
425.8144563365
 20
-243.8864418339
 10
426.1636056243
 20
-247.9191471794
 10
426.3384204545
 20
-251.86707542
 10
426.3384204545
 20
-255.7193780669
 10
426.1636056243
 20
-259.4654694008
 10
425.8144563365
 20
-263.0950555592
 10
425.2919320164
 20
-266.5981628241
 10
424.5974685055
 20
-269.9651650277
 10
423.7329741159
 20
-273.1868100046
 10
422.7008243867
 20
-276.2542450157
 10
421.7779566674
 20
-278.5417418538
  0
ARC
  5
132
330
1F
100
AcDbEntity
  8
0
  6
Continuous
 62
     7
370
    25
100
AcDbCircle
 10
451.0602413177
 20
-212.890310661
 30
0.0
 40
52.75147509569514
100
AcDbArc
 50
336.8378467274
 51
350.084080167
  0
LINE
  5
133
330
1F
100
AcDbEntity
  8
0
  6
Continuous
 62
     7
370
    25
100
AcDbLine
 10
487.7257603028
 20
-230.8055693777
 30
0.0
 11
503.0236894008
 21
-221.9742628891
 31
0.0
  0
LWPOLYLINE
  5
134
330
1F
100
AcDbEntity
  8
0
  6
Continuous
 62
     7
370
    25
100
AcDbPolyline
 90
       52
 70
   128
 43
0.0
 10
334.8304591226
 20
-168.3118076363
 10
335.2901028547
 20
-172.4084827313
 10
335.9236773186
 20
-176.5723323107
 10
336.729427374
 20
-180.7918215984
 10
337.7051209168
 20
-185.0552616841
 10
338.8480550619
 20
-189.3508419044
 10
340.1550636312
 20
-193.6666625603
 10
341.6225259246
 20
-197.9907678827
 10
343.2463767498
 20
-202.311179152
 10
345.022117684
 20
-206.6159278819
 10
346.9448295356
 20
-210.893088975
 10
349.0091859714
 20
-215.1308137573
 10
351.2094682715
 20
-219.3173628024
 10
353.5395811717
 20
-223.4411384518
 10
355.9930697485
 20
-227.4907169429
 10
358.5631373006
 20
-231.4548800557
 10
361.2426641777
 20
-235.3226461894
 10
364.024227503
 20
-239.083300784
 10
366.9001217363
 20
-242.726426002
 10
369.8623800201
 20
-246.241929588
 10
372.9027962499
 20
-249.6200728265
 10
376.012947806
 20
-252.8514975201
 10
379.1842188871
 20
-255.9272519142
 10
382.407824377
 20
-258.8388154948
 10
385.6748341819
 20
-261.5781225928
 10
388.9761979686
 20
-264.1375847269
 10
392.3027702358
 20
-266.5101116261
 10
395.645335649
 20
-268.6891308707
 10
398.9946345694
 20
-270.6686060998
 10
402.3413887048
 20
-272.4430537331
 10
405.6763268127
 20
-274.0075581618
 10
408.9902103835
 20
-275.3577853657
 10
412.2738592333
 20
-276.4899949193
 10
415.5181769351
 20
-277.4010503541
 10
418.7141760176
 20
-278.0884278469
 10
421.8530028628
 20
-278.5502232112
 10
424.9259622324
 20
-278.7851571727
 10
427.9245413554
 20
-278.7925789129
 10
430.8404335102
 20
-278.5724678719
 10
433.6655610364
 20
-278.1254338055
 10
436.3920977116
 20
-277.452715096
 10
439.0124904315
 20
-276.5561753219
 10
441.5194801338
 20
-275.4382980946
 10
443.9061219076
 20
-274.1021801793
 10
446.1658042321
 20
-272.5515229154
 10
448.2922672918
 20
-270.7906219634
 10
450.2796203179
 20
-268.824355405
 10
452.1223579071
 20
-266.6581702295
 10
453.8153752721
 20
-264.2980672446
 10
455.3539823839
 20
-261.7505844531
 10
456.7339169634
 20
-259.0227789405
 10
456.9474688969
 20
-258.5527815709
  0
LINE
  5
135
330
1F
100
AcDbEntity
  8
0
  6
Continuous
 62
     7
370
    25
100
AcDbLine
 10
372.8757663974
 20
-146.348719244
 30
0.0
 11
334.8304591226
 21
-168.3118076363
 31
0.0
  0
LINE
  5
136
330
1F
100
AcDbEntity
  8
0
  6
Continuous
 62
     7
370
    25
100
AcDbLine
 10
396.9576722229
 20
-107.8398655496
 30
0.0
 11
283.820587233
 21
-173.1525144954
 31
0.0
  0
LINE
  5
137
330
1F
100
AcDbEntity
  8
0
  6
Continuous
 62
     7
370
    25
100
AcDbLine
 10
396.9576722229
 20
-113.5556512328
 30
0.0
 11
283.820587233
 21
-178.8683001786
 31
0.0
  0
LINE
  5
138
330
1F
100
AcDbEntity
  8
0
  6
Continuous
 62
     7
370
    25
100
AcDbLine
 10
283.820587233
 20
-173.1525144954
 30
0.0
 11
283.820587233
 21
-178.8683001786
 31
0.0
  0
LINE
  5
139
330
1F
100
AcDbEntity
  8
0
  6
Continuous
 62
     7
370
    25
100
AcDbLine
 10
283.820587233
 20
-178.8683001786
 30
0.0
 11
294.4271889508
 21
-184.9913610173
 31
0.0
  0
LINE
  5
13A
330
1F
100
AcDbEntity
  8
0
  6
Continuous
 62
     7
370
    25
100
AcDbLine
 10
396.9576722229
 20
-104.5737023021
 30
0.0
 11
283.820587233
 21
-169.8863512479
 31
0.0
  0
LINE
  5
13B
330
1F
100
AcDbEntity
  8
0
  6
Continuous
 62
     7
370
    25
100
AcDbLine
 10
283.820587233
 20
-169.8863512479
 30
0.0
 11
286.6494740941
 21
-171.5194328716
 31
0.0
  0
LINE
  5
13C
330
1F
100
AcDbEntity
  8
0
  6
Continuous
 62
     7
370
    25
100
AcDbLine
 10
396.9576722229
 20
-98.8579166189
 30
0.0
 11
283.820587233
 21
-164.1705655647
 31
0.0
  0
LINE
  5
13D
330
1F
100
AcDbEntity
  8
0
  6
Continuous
 62
     7
370
    25
100
AcDbLine
 10
283.820587233
 20
-164.1705655647
 30
0.0
 11
283.820587233
 21
-169.8863512479
 31
0.0
  0
LINE
  5
13E
330
1F
100
AcDbEntity
  8
0
  6
Continuous
 62
     7
370
    25
100
AcDbLine
 10
334.8304591226
 20
-168.3118076363
 30
0.0
 11
329.8521162191
 21
-165.4378714516
 31
0.0
  0
LINE
  5
13F
330
1F
100
AcDbEntity
  8
0
  6
Continuous
 62
     7
370
    25
100
AcDbLine
 10
460.5972825296
 20
-265.3215415077
 30
0.0
 11
460.5972825296
 21
-259.4945664429
 31
0.0
  0
ARC
  5
140
330
1F
100
AcDbEntity
  8
0
  6
Continuous
 62
     7
370
    25
100
AcDbCircle
 10
465.1516227252
 20
-64.6344393504
 30
0.0
 40
3.374216515647849
100
AcDbArc
 50
112.931179602
 51
175.7486794404
  0
LWPOLYLINE
  5
141
330
1F
100
AcDbEntity
  8
0
  6
Continuous
 62
     7
370
    25
100
AcDbPolyline
 90
       14
 70
   128
 43
0.0
 10
475.7866904446
 20
-64.3843037035
 10
475.7688552469
 20
-64.0960210665
 10
475.5481712287
 20
-63.3384123227
 10
475.083109678
 20
-62.6186048185
 10
474.3904791311
 20
-61.9626142724
 10
473.4953130606
 20
-61.3941498921
 10
472.4299651005
 20
-60.9337574612
 10
471.2329397018
 20
-60.5980767619
 10
469.9475004814
 20
-60.3992401691
 10
468.6201065618
 20
-60.3444341555
 10
467.2987334178
 20
-60.4356395531
 10
466.0311389175
 20
-60.6695599612
 10
464.863137229
 20
-61.0377408868
 10
463.8369429763
 20
-61.5268753121
  0
LWPOLYLINE
  5
142
330
1F
100
AcDbEntity
  8
0
  6
Continuous
 62
     7
370
    25
100
AcDbPolyline
 90
       19
 70
   128
 43
0.0
 10
407.9755072626
 20
-59.4814759304
 10
409.4827029031
 20
-58.7143923564
 10
411.1445531096
 20
-58.0624080976
 10
412.9348495114
 20
-57.5358053351
 10
414.825358065
 20
-57.1428889093
 10
416.7862643209
 20
-56.8898553467
 10
418.7866436163
 20
-56.7806951379
 10
420.7949487747
 20
-56.8171298045
 10
422.7795076239
 20
-56.9985847501
 10
424.7090224855
 20
-57.3221983217
 10
426.5530637574
 20
-57.7828669402
 10
428.2825498072
 20
-58.3733255861
 10
429.8702056068
 20
-59.0842623739
 10
431.2909928757
 20
-59.9044654057
 10
432.52250495
 20
-60.8209995898
 10
433.5453201486
 20
-61.8194106346
 10
434.3433080649
 20
-62.8839530014
 10
434.9038839526
 20
-63.9978382213
 10
435.0809520634
 20
-64.5272970262
  0
ARC
  5
143
330
1F
100
AcDbEntity
  8
0
  6
Continuous
 62
     7
370
    25
100
AcDbCircle
 10
411.3788820346
 20
-66.8703327025
 30
0.0
 40
8.134996265361064
100
AcDbArc
 50
114.731228177
 51
173.9486308653
  0
ENDSEC
  0
SECTION
  2
OBJECTS
  0
DICTIONARY
  5
C
330
0
100
AcDbDictionary
281
     1
  3
ACAD_GROUP
350
D
  3
ACAD_LAYOUT
350
1A
  3
ACAD_MLINESTYLE
350
17
  3
ACAD_PLOTSETTINGS
350
19
  3
ACAD_PLOTSTYLENAME
350
E
  3
ACAD_SCALELIST
350
47
  3
DWGPROPS
350
144
  0
DICTIONARY
  5
D
102
{ACAD_REACTORS
330
C
102
}
330
C
100
AcDbDictionary
281
     1
  0
DICTIONARY
  5
1A
102
{ACAD_REACTORS
330
C
102
}
330
C
100
AcDbDictionary
281
     1
  3
Layout1
350
1E
  3
Layout2
350
26
  3
Model
350
22
  0
DICTIONARY
  5
17
102
{ACAD_REACTORS
330
C
102
}
330
C
100
AcDbDictionary
281
     1
  3
Standard
350
18
  0
DICTIONARY
  5
19
102
{ACAD_REACTORS
330
C
102
}
330
C
100
AcDbDictionary
281
     1
  0
ACDBDICTIONARYWDFLT
  5
E
102
{ACAD_REACTORS
330
C
102
}
330
C
100
AcDbDictionary
281
     1
  3
Normal
350
F
100
AcDbDictionaryWithDefault
340
F
  0
DICTIONARY
  5
47
102
{ACAD_REACTORS
330
C
102
}
330
C
100
AcDbDictionary
281
     1
  3
A0
350
48
  3
A1
350
49
  3
A2
350
4A
  3
A3
350
4B
  3
A4
350
4C
  3
A5
350
4D
  3
A6
350
4E
  3
A7
350
4F
  3
A8
350
50
  3
A9
350
51
  3
B0
350
52
  3
B1
350
53
  3
B2
350
54
  3
B3
350
55
  3
B4
350
56
  3
B5
350
57
  3
B6
350
58
  3
B7
350
59
  3
B8
350
5A
  3
B9
350
5B
  3
C0
350
5C
  3
C1
350
5D
  3
C2
350
5E
  3
C3
350
5F
  3
C4
350
60
  3
C5
350
61
  3
C6
350
62
  3
C7
350
63
  3
C8
350
64
  3
C9
350
65
  3
D0
350
66
  3
D1
350
67
  3
D2
350
68
  0
XRECORD
  5
144
102
{ACAD_REACTORS
330
C
102
}
330
C
100
AcDbXrecord
280
     1
  1
DWGPROPS COOKIE
  2

  3

  4

  6

  7

  8
b.kav
  9

300
=
301
=
302
=
303
=
304
=
305
=
306
=
307
=
308
=
309
=
 40
0.0
 41
2459741.489560475
 42
2459741.48956066
  1

 90
        0
  0
LAYOUT
  5
1E
102
{ACAD_REACTORS
330
1A
102
}
330
1A
100
AcDbPlotSettings
  1

  2
none_device
  4

  6

 40
0.0
 41
0.0
 42
0.0
 43
0.0
 44
0.0
 45
0.0
 46
0.0
 47
0.0
 48
0.0
 49
0.0
140
0.0
141
0.0
142
1.0
143
1.0
 70
   688
 72
     1
 73
     0
 74
     5
  7

 75
    16
147
1.0
148
0.0
149
0.0
100
AcDbLayout
  1
Layout1
 70
     1
 71
     1
 10
0.0
 20
0.0
 11
420.0
 21
297.0
 12
0.0
 22
0.0
 32
0.0
 14
1.0000000000E+20
 24
1.0000000000E+20
 34
1.0000000000E+20
 15
-1.0000000000E+20
 25
-1.0000000000E+20
 35
-1.0000000000E+20
146
0.0
 13
0.0
 23
0.0
 33
0.0
 16
1.0
 26
0.0
 36
0.0
 17
0.0
 27
1.0
 37
0.0
 76
     0
330
1B
  0
LAYOUT
  5
26
102
{ACAD_REACTORS
330
1A
102
}
330
1A
100
AcDbPlotSettings
  1

  2
none_device
  4

  6

 40
0.0
 41
0.0
 42
0.0
 43
0.0
 44
0.0
 45
0.0
 46
0.0
 47
0.0
 48
0.0
 49
0.0
140
0.0
141
0.0
142
1.0
143
1.0
 70
   688
 72
     1
 73
     0
 74
     5
  7

 75
    16
147
1.0
148
0.0
149
0.0
100
AcDbLayout
  1
Layout2
 70
     1
 71
     2
 10
0.0
 20
0.0
 11
0.0
 21
0.0
 12
0.0
 22
0.0
 32
0.0
 14
0.0
 24
0.0
 34
0.0
 15
0.0
 25
0.0
 35
0.0
146
0.0
 13
0.0
 23
0.0
 33
0.0
 16
1.0
 26
0.0
 36
0.0
 17
0.0
 27
1.0
 37
0.0
 76
     0
330
23
  0
LAYOUT
  5
22
102
{ACAD_REACTORS
330
1A
102
}
330
1A
100
AcDbPlotSettings
  1

  2
none_device
  4
Letter_(8.50_x_11.00_Inches)
  6

 40
6.35
 41
6.35
 42
6.35000508
 43
6.35000508
 44
215.9
 45
279.4
 46
0.0
 47
0.0
 48
0.0
 49
0.0
140
0.0
141
0.0
142
1.0
143
1.0
 70
  1712
 72
     1
 73
     0
 74
     0
  7

 75
     0
147
1.0
148
0.0
149
0.0
100
AcDbLayout
  1
Model
 70
     1
 71
     0
 10
0.0
 20
0.0
 11
279.4
 21
215.9
 12
0.0
 22
0.0
 32
0.0
 14
0.0
 24
0.0
 34
0.0
 15
279.4
 25
215.9
 35
0.0
146
0.0
 13
0.0
 23
0.0
 33
0.0
 16
1.0
 26
0.0
 36
0.0
 17
0.0
 27
1.0
 37
0.0
 76
     0
330
1F
331
29
  0
MLINESTYLE
  5
18
102
{ACAD_REACTORS
330
17
102
}
330
17
100
AcDbMlineStyle
  2
Standard
 70
     0
  3

 62
   256
 51
90.0
 52
90.0
 71
     2
 49
0.5
 62
   256
  6
BYLAYER
 49
-0.5
 62
   256
  6
BYLAYER
  0
ACDBPLACEHOLDER
  5
F
102
{ACAD_REACTORS
330
E
102
}
330
E
  0
SCALE
  5
48
102
{ACAD_REACTORS
330
47
102
}
330
47
100
AcDbScale
 70
     0
300
1:1
140
1.0
141
1.0
290
     1
  0
SCALE
  5
49
102
{ACAD_REACTORS
330
47
102
}
330
47
100
AcDbScale
 70
     0
300
1:2
140
1.0
141
2.0
290
     0
  0
SCALE
  5
4A
102
{ACAD_REACTORS
330
47
102
}
330
47
100
AcDbScale
 70
     0
300
1:4
140
1.0
141
4.0
290
     0
  0
SCALE
  5
4B
102
{ACAD_REACTORS
330
47
102
}
330
47
100
AcDbScale
 70
     0
300
1:5
140
1.0
141
5.0
290
     0
  0
SCALE
  5
4C
102
{ACAD_REACTORS
330
47
102
}
330
47
100
AcDbScale
 70
     0
300
1:8
140
1.0
141
8.0
290
     0
  0
SCALE
  5
4D
102
{ACAD_REACTORS
330
47
102
}
330
47
100
AcDbScale
 70
     0
300
1:10
140
1.0
141
10.0
290
     0
  0
SCALE
  5
4E
102
{ACAD_REACTORS
330
47
102
}
330
47
100
AcDbScale
 70
     0
300
1:16
140
1.0
141
16.0
290
     0
  0
SCALE
  5
4F
102
{ACAD_REACTORS
330
47
102
}
330
47
100
AcDbScale
 70
     0
300
1:20
140
1.0
141
20.0
290
     0
  0
SCALE
  5
50
102
{ACAD_REACTORS
330
47
102
}
330
47
100
AcDbScale
 70
     0
300
1:30
140
1.0
141
30.0
290
     0
  0
SCALE
  5
51
102
{ACAD_REACTORS
330
47
102
}
330
47
100
AcDbScale
 70
     0
300
1:40
140
1.0
141
40.0
290
     0
  0
SCALE
  5
52
102
{ACAD_REACTORS
330
47
102
}
330
47
100
AcDbScale
 70
     0
300
1:50
140
1.0
141
50.0
290
     0
  0
SCALE
  5
53
102
{ACAD_REACTORS
330
47
102
}
330
47
100
AcDbScale
 70
     0
300
1:100
140
1.0
141
100.0
290
     0
  0
SCALE
  5
54
102
{ACAD_REACTORS
330
47
102
}
330
47
100
AcDbScale
 70
     0
300
2:1
140
2.0
141
1.0
290
     0
  0
SCALE
  5
55
102
{ACAD_REACTORS
330
47
102
}
330
47
100
AcDbScale
 70
     0
300
4:1
140
4.0
141
1.0
290
     0
  0
SCALE
  5
56
102
{ACAD_REACTORS
330
47
102
}
330
47
100
AcDbScale
 70
     0
300
8:1
140
8.0
141
1.0
290
     0
  0
SCALE
  5
57
102
{ACAD_REACTORS
330
47
102
}
330
47
100
AcDbScale
 70
     0
300
10:1
140
10.0
141
1.0
290
     0
  0
SCALE
  5
58
102
{ACAD_REACTORS
330
47
102
}
330
47
100
AcDbScale
 70
     0
300
100:1
140
100.0
141
1.0
290
     0
  0
SCALE
  5
59
102
{ACAD_REACTORS
330
47
102
}
330
47
100
AcDbScale
 70
     0
300
1/128" = 1'-0"
140
0.0078125
141
12.0
290
     0
  0
SCALE
  5
5A
102
{ACAD_REACTORS
330
47
102
}
330
47
100
AcDbScale
 70
     0
300
1/64" = 1'-0"
140
0.015625
141
12.0
290
     0
  0
SCALE
  5
5B
102
{ACAD_REACTORS
330
47
102
}
330
47
100
AcDbScale
 70
     0
300
1/32" = 1'-0"
140
0.03125
141
12.0
290
     0
  0
SCALE
  5
5C
102
{ACAD_REACTORS
330
47
102
}
330
47
100
AcDbScale
 70
     0
300
1/16" = 1'-0"
140
0.0625
141
12.0
290
     0
  0
SCALE
  5
5D
102
{ACAD_REACTORS
330
47
102
}
330
47
100
AcDbScale
 70
     0
300
3/32" = 1'-0"
140
0.09375
141
12.0
290
     0
  0
SCALE
  5
5E
102
{ACAD_REACTORS
330
47
102
}
330
47
100
AcDbScale
 70
     0
300
1/8" = 1'-0"
140
0.125
141
12.0
290
     0
  0
SCALE
  5
5F
102
{ACAD_REACTORS
330
47
102
}
330
47
100
AcDbScale
 70
     0
300
3/16" = 1'-0"
140
0.1875
141
12.0
290
     0
  0
SCALE
  5
60
102
{ACAD_REACTORS
330
47
102
}
330
47
100
AcDbScale
 70
     0
300
1/4" = 1'-0"
140
0.25
141
12.0
290
     0
  0
SCALE
  5
61
102
{ACAD_REACTORS
330
47
102
}
330
47
100
AcDbScale
 70
     0
300
3/8" = 1'-0"
140
0.375
141
12.0
290
     0
  0
SCALE
  5
62
102
{ACAD_REACTORS
330
47
102
}
330
47
100
AcDbScale
 70
     0
300
1/2" = 1'-0"
140
0.5
141
12.0
290
     0
  0
SCALE
  5
63
102
{ACAD_REACTORS
330
47
102
}
330
47
100
AcDbScale
 70
     0
300
3/4" = 1'-0"
140
0.75
141
12.0
290
     0
  0
SCALE
  5
64
102
{ACAD_REACTORS
330
47
102
}
330
47
100
AcDbScale
 70
     0
300
1" = 1'-0"
140
1.0
141
12.0
290
     0
  0
SCALE
  5
65
102
{ACAD_REACTORS
330
47
102
}
330
47
100
AcDbScale
 70
     0
300
1-1/2" = 1'-0"
140
1.5
141
12.0
290
     0
  0
SCALE
  5
66
102
{ACAD_REACTORS
330
47
102
}
330
47
100
AcDbScale
 70
     0
300
3" = 1'-0"
140
3.0
141
12.0
290
     0
  0
SCALE
  5
67
102
{ACAD_REACTORS
330
47
102
}
330
47
100
AcDbScale
 70
     0
300
6" = 1'-0"
140
6.0
141
12.0
290
     0
  0
SCALE
  5
68
102
{ACAD_REACTORS
330
47
102
}
330
47
100
AcDbScale
 70
     0
300
1'-0" = 1'-0"
140
12.0
141
12.0
290
     0
  0
ENDSEC
  0
EOF
